» » »

Danko Jones, Natural Tan Tabs (ver.1)

Artists:  A B C D E F G H I J K L M N O P Q R S T U V W X Y Z # 

Natural Tan Tabs (ver.1)

Danko Jones Tabs
 Rating:
4/5 (4 votes)
Natural Tan lessons Tabs too difficult? Try these video lessons and learn fast
                




intro:

e|-----------------------|
B|-----------------------|
G|-----------------------|
D|-----------------------|
A|-3-3-3-3-3-3-3-3-5-3---|
E|---------------------5-|

riff 1:

|------------------------|
|------------------------|
|-5-5-5-5-5-5-5-5--7-5---|
|-5-5-5-5-5-5-5-5--7-5-7-|
|-3-3-3-3-3-3-3-3--5-3-7-|
|-3-3-3-3-3-3-3-3--5-3-5-|

riff 2:

|-------------------------------------------|
|-------------------------------------------|
|--------------------------------------7----|
|-5-7-5-7-5-7-5-7-5-7-5-7-5-7-5-7--7-5---10-|
|-5-7-5-7-5-7-5-7-5-7-5-7-5-7-5-7-----------|
|-3-5-3-5-3-5-3-5-3-5-3-5-3-5-3-5-----------|

riff 3:

|-----------------------------|
|-----------------------------|
|-5-5-5-5-5-5-5-5--7-5----7b8-|
|-5-5-5-5-5-5-5-5--7-5-7--7b8-|
|-3-3-3-3-3-3-3-3--5-3-7------|
|-3-3-3-3-3-3-3-3--5-3-5------|

riff 4:

|---------|-----------------|-----|
|---------|-----------------|-----|
|-5-7-5---|-5-7-5---5-7-5---|-8-8-|
|-5-7-5-7-|-5-7-5-7-5-7-5-7-|-8-8-|
|-3-5-3-7-|-3-5-3-7-3-5-3-7-|-6-6-|
|-3-5-3-5-|-3-5-3-5-3-5-3-5-|-6-6-|

outro:

|-----|
|-----|
|-7-5-|
|-7-5-|
|-5-3-|
|-5-3-|

order:

-intro  x4
-riff 1 x12
-riff 2 x2
-riff 3 x2
-riff 1 x8
-riff 2 x2
-riff 4 x4
-riff 3 x2
-riff 1 x8
-riff 2 x2
-outro until the end
            
Submit corrections

comments powered by Disqus
↑ Back to top | Danko Jones Tabs for Natural Tan. Lyrics for acoustic guitar and electric guitar. Tablatures and chords are parodies/interpretations of the original songs. You may use it for private study, scholarship, research or language learning purposes only