» » »

King Of Magazines Bass tabs (ver.1)

Artists:  A B C D E F G H I J K L M N O P Q R S T U V W X Y Z # 

King Of Magazines Bass tabs (ver.1)

Danko Jones
Rating:
0/5 (0 votes)

Tabs too difficult? Try these video lessons and learn fast.
                Danko Jones - King of Magazines Bass tab

Intro/verse                     4x
G|------------------------------------------------------------|
D|---4-7-7-7--------------------------------------------------|
A|-7---------7-7-7-7-4-4-4------------4-4-4-------------------| 
E|--------------------------------4-5-------0-0-0-2-2---------|

verse 2                                 2x
G|------------------------------------------------------------|
D|---4-7-7-7--------------------------------------------------|
A|-7---------7-7-7-7-4-4-4-4-4-4------4-4-4-------------------| 
E|--------------------------------4-5-------0-0-0-2-2-2-2-2-2-|

Pre-chorus                              2x
G |----------------------------------------------------|
D |----------------------------------------------------|
A |-----7-7-----7-7------7-7---7-----------------------|
E |-0-0-----0-0----0-0-----0-0-------------------------|

chorus                          
G|-----------------------------------|         \
D|---4-7-7-7-------------------------|         |
A|-7---------7-7-7-7-4-4-4-4-4h7-4h7-|         |
E|-----------------------------------|         |
                                               |  2x
G|---------------------------------------|     |
D|---------------------------------------|     |
A|-----4-4-4-----------------------------|     |
E|-4-5-------0-0-0-2-2-2-2-2h5-2h5-0-2-5-|     /

verse(after firsth chorus)
G|------------------------------------------------------------|
D|------------------------------------------------------------|
A|-------------------4-4-4------------4-4-4-------------------| 
E|--------------------------------4-5-------0-0-0-2-2---------|

G|------------------------------------------------------------|
D|---4-7-7-7--------------------------------------------------|
A|-7---------7-7-7-7-4-4-4------------4-4-4-------------------| 
E|--------------------------------4-5-------0-0-0-2-2---------|

                                        2x
G|------------------------------------------------------------|
D|---4-7-7-7--------------------------------------------------|
A|-7---------7-7-7-7-4-4-4-4-4-4------4-4-4-------------------| 
E|--------------------------------4-5-------0-0-0-2-2-2-2-2-2-|

Pre-chorus                              2x
G |----------------------------------------------------|
D |----------------------------------------------------|
A |-----7-7-----7-7------7-7---7-----------------------|
E |-0-0-----0-0----0-0-----0-0-------------------------|

chorus                          
G|-----------------------------------|         \
D|---4-7-7-7-------------------------|         |
A|-7---------7-7-7-7-4-4-4-4-4h7-4h7-|         |
E|-----------------------------------|         |
                                               |  2x
G|---------------------------------------|     |
D|---------------------------------------|     |
A|-----4-4-4-----------------------------|     |
E|-4-5-------0-0-0-2-2-2-2-2h5-2h5-0-2-5-|     /
Bridge 
G |---------------------------------------|
D |---------------------------------------|
A |-7-7-7-9-------------------------------|
E |---------7-7-7-9-5-7-9-7-5-0-0-0-5-0-2-|

G |------------------------------------------------------|
D |------------------------------------------------------|
A |-7-7-7-9----------------------------------------------|
E |---------7-7-7-9-5-7-9-7-5-0-0-0-5-0-2-7-5-0-0-0-5-0-2|


Pre-chorus                              2x
G |----------------------------------------------------|
D |----------------------------------------------------|
A |-----7-7-----7-7------7-7---7-----------------------|
E |-0-0-----0-0----0-0-----0-0-------------------------|

chorus                          
G|-----------------------------------|         \
D|---4-7-7-7-------------------------|         |
A|-7---------7-7-7-7-4-4-4-4-4h7-4h7-|         |
E|-----------------------------------|         |
                                               |  4x
G|---------------------------------------|     |
D|---------------------------------------|     |
A|-----4-4-4-----------------------------|     |
E|-4-5-------0-0-0-2-2-2-2-2h5-2h5-0-2-5-|     /

I think that's is pretty much it. 
It's my first tab, if I made any mistakes or if you have any tips/suggestions/

Have fun!
            
Tabs too difficult? Try these video lessons and learn fast.


comments powered by Disqus
↑ Back to top | Tablatures and chords are parodies/interpretations of the original songs. You may use it for private study, scholarship, research or language learning purposes only