>
 >
I Wanna Break Up With You

I Wanna Break Up With You Guitar Tabs

Danko Jones - I Wanna Break Up With You chords, tabs, tablatures, lyrics

Guitar lessons | Add/correct | Request | Top 50 tabs Artists:  A B C D E F G H I J K L M N O P Q R S T U V W X Y Z 0-9

I Wanna Break Up With You Guitar Tabs – Danko Jones

CD, Sheet music, Poster

Do you like I Wanna Break Up With You? Share with your friends now
Tabs
Danko Jones - I Wanna Break Up With You

Instrument: Guitar
Tuning: eBGDAE



Verse

e||----------------------------------------|
B||----------------------------------------|
G||-----------------7-9-10-9-7-------------|
D||-7-9---------7-9-7-9-10-9-7-9-7-9---7-9-|
A||-7-9---------7-9-5-7-8--7-5-9-7-9---7-9-|
E||-5-7---------5-7------------7-5-7---5-7-| x4


Pre-Chorus

e||----------------------------------------------|
B||----------------------------------------------|
G||-7------9-------12-11-10-9-8-7-10-9-8-7-6-5---|
D||-7------9-------12-11-10-9-8-7-10-9-8-7-6-5---|
A||-5-x16--7-x16---10-9--8--7-6-5-8--7-6-5-4-3---|
E||----------------------------------------------|


Chorus

e||-----------------------------|
B||-----------------------------|
G||-----------------------------|
D||-9------5------7------9------|
A||-9------5------7------9------|
E||-7-x16--3-x16--5-x16--7-x16--| x2


Verse

e||----------------------------------------|
B||----------------------------------------|
G||-----------------7-9-10-9-7-------------|
D||-7-9---------7-9-7-9-10-9-7-9-7-9---7-9-|
A||-7-9---------7-9-5-7-8--7-5-9-7-9---7-9-|
E||-5-7---------5-7------------7-5-7---5-7-| x2

e||---------------------------------------|
B||---------------------------------------|
G||-----------------3-5-6-5-3-------------|
D||-3-5---------3-5-3-5-6-5-3-5-3-5---3-5-|
A||-3-5---------3-5-1-3-4-3-1-5-3-5---3-5-|
E||-1-3---------1-3-----------3-1-3---1-3-|

e||----------------------------------------|
B||----------------------------------------|
G||-----------------7-9-10-9-7-------------|
D||-7-9---------7-9-7-9-10-9-7-9-7-9---7-9-|
A||-7-9---------7-9-5-7-8--7-5-9-7-9---7-9-|
E||-5-7---------5-7------------7-5-7---5-7-| 


Pre-Chorus

e||----------------------------------------------|
B||----------------------------------------------|
G||-7------9-------12-11-10-9-8-7-10-9-8-7-6-5---|
D||-7------9-------12-11-10-9-8-7-10-9-8-7-6-5---|
A||-5-x16--7-x16---10-9--8--7-6-5-8--7-6-5-4-3---|
E||----------------------------------------------|


Chorus

e||-----------------------------|
B||-----------------------------|
G||-----------------------------|
D||-9------5------7------9------|
A||-9------5------7------9------|
E||-7-x16--3-x16--5-x16--7-x16--|

e||------------------------------------------|
B||------------------------------------------|
G||------------------------------------------|
D||-9------5------7------9-----7-9---7-9--7--|
A||-9------5------7------9-----7-9---7-9--7--|
E||-7-x16--3-x16--5-x16--7-x8--5-7---5-7--5--|


Solo

e||---------------------------------|---------------------------------|
B||-7-7-7-7-7-7-7-7-7-7-7-7-7-7-7-7-|-5-5-5-5-5-5-5-5-5-5-5-5-5-5-5-5-|
G||---------------------------------|---------------------------------|
D||---------------------------------|---------------------------------|
A||---------------------------------|---------------------------------|
E||---------------------------------|---------------------------------|

e||---------------------------------|---------------------------------|
B||---------------------------------|---------------------7-9-9b--7---|
G||-6-6-7-7-7-7-7-7-6-6-6-6---------|---------------------7-9-9b--7---|
D||-------------------------7-7-7-7-|-9-9-9-9-9-9-9-9-7-9-----------9-|
A||---------------------------------|---------------------------------|
E||---------------------------------|---------------------------------|



e||------------|------------|------------|--------------------|
B||------------|------------|------------|--------------------|
G||-7-9--------|-7-9--------|-7-9--------|-7-9----------------|
D||-7-9--------|-7-9--------|-7-9--------|-7-9-------2---5--5-|
A||-5-7--------|-5-7--------|-5-7--------|-5-7-------2---5--5-|
E||------------|------------|------------|-----------0---3--3-|

e||------------|------------|------------|--------------------|
B||------------|------------|------------|--------------------|
G||------------|------------|------------|--------------------|
D||-7-9--------|-7-9--------|-7-9--------|-7-9-------2---5--5-|
A||-7-9--------|-7-9--------|-7-9--------|-7-9-------2---5--5-|
E||-5-7--------|-5-7--------|-5-7--------|-5-7-------0---3--3-|


Pre-Chorus

e||--------------------------------------------------------------|
B||--------------------------------------------------------------|
G||-7------9------12------14-------12-11-10-9-8-7-10-9-8-7-6-5---|
D||-7------9------12------14-------12-11-10-9-8-7-10-9-8-7-6-5---|
A||-5-x16--7-x16--10-x16--12-x16---10-9--8--7-6-5-8--7-6-5-4-3---|
E||--------------------------------------------------------------|



Chorus / Outro

e||--------------------------------------------|
B||--------------------------------------------|
G||-------------------------------7-9-10-9-7---|
D||-9------5------7------9----7-9-7-9-10-9-7-9-|
A||-9------5------7------9----7-9-5-7-8--7-5-9-|
E||-7-x16--3-x16--5-x16--7-x8-5-7------------7-|

at 04:30 end with

e||--------------------------------------------------------|
B||--------------------------------------------------------|
G||--------------------------------------------------------|
D||-9---------------------5---------------------7~----9~---|
A||-9---------5-7-8-7-5---5---------5-7-8-7-5---7~----9~---|
E||-7-x8--5-7-----------7-3-x8--5-7-----------7-5~----7~---|





Comments


Popular Danko Jones tabs & chords
I Want You Bass Tabs
Sleep Is The Enemy Bass Tabs
Code Of The Road Tabs
Don't Fall In Love 1 Tabs
Finger 1 Tabs
Full Of Regret Tabs
I Think Bad Thoughts 1 Tabs
I Want You 2 Tabs
Papa Tabs
Take Me Home Ukulele


Song lyrics



↑ Back to top | Tablatures and chords are parodies/interpretations of the original songs. You may use it for private study, scholarship, research or language learning purposes only
© 2014 AZChords.com Contact us | Privacy policy | DMCA | Add/correct tabs | Request tabs | Top 50 tabs