>
 >
I Think Bad Thoughts 1

I Think Bad Thoughts 1 Guitar Tabs

Danko Jones - I Think Bad Thoughts 1 chords, tabs, tablatures, lyrics

Guitar lessons | Add/correct | Request | Top 50 tabs Artists:  A B C D E F G H I J K L M N O P Q R S T U V W X Y Z 0-9

I Think Bad Thoughts 1 Guitar Tabs – Danko Jones

CD, Sheet music, Poster

Do you like I Think Bad Thoughts 1? Share with your friends now
Bass TabsChordsTabsTabs v2Ukulele
-------------------------------------------------------------------------------
                             I THINK BAD THOUGHTS - Danko Jones
-------------------------------------------------------------------------------


Tuning: Standard


     Verse 1                                                 
          PM PM PM PM PM PM    PM PM PM PM PM PM PM PM  
     Q    E  E  E  E  E  E     E  E  E  E  E  E  E  E   
E||-------------------------|--------------------------|
B||-------------------------|--------------------------|
G||-------------------------|--------------------------|
D||-------------------------|--------------------------|
A||--6----------------------|--------------------------|
E||--4----3--3--3--3--3--3--|--3--3--3--3--3--3--3--3--|


  PM PM PM PM PM PM PM PM                               
  E  E  E  E  E  E  E  E     E  E  E  E  E  E  E  E   3x
--------------------------|---------------------------||
--------------------------|---------------------------||
--------------------------|--------------------------*||
--------------------------|--------------------------*||
--------------------------|---------------------------||
--3--3--3--3--3--3--3--3--|--1--3--3--4--4--6--6--8---||


       PM PM PM PM PM PM    PM PM PM PM PM PM PM PM    PM PM PM PM PM PM PM PM  
  Q    E  E  E  E  E  E     E  E  E  E  E  E  E  E     E  E  E  E  E  E  E  E   
-------------------------|--------------------------|--------------------------|
-------------------------|--------------------------|--------------------------|
-------------------------|--------------------------|--------------------------|
-------------------------|--------------------------|--------------------------|
--6----------------------|--------------------------|--------------------------|
--4----3--3--3--3--3--3--|--3--3--3--3--3--3--3--3--|--3--3--3--3--3--3--3--3--|


                         Chorus 1                              
  W                      E   E   E   E   E   E   E   E   
-------------------||-----------------------------------|
-------------------||-----------------------------------|
-------------------||*----------------------------------|
-------------------||*----------------------------------|
--3----------------||---10--10--10--10--10--10--10--10--|
--1----------------||----8---8---8---8---8---8---8---8--|


   E   E   E   E   E   E   E   E     E  E  E  E  E  E  E  E   
----------------------------------|--------------------------|
----------------------------------|--------------------------|
----------------------------------|--------------------------|
----------------------------------|--------------------------|
--10--10--10--10--10--10--10--10--|--8--8--8--8--8--8--8--8--|
---8---8---8---8---8---8---8---8--|--6--6--6--6--6--6--6--6--|


  E  E  E  E  E  E  E  E     E  E  E  E  E  E  E  E   
--------------------------|--------------------------|
--------------------------|--------------------------|
--------------------------|--------------------------|
--------------------------|--------------------------|
--8--8--8--8--8--8--8--8--|--6--6--6--6--6--6--6--6--|
--6--6--6--6--6--6--6--6--|--4--4--4--4--4--4--4--4--|


  E  E  E  E  E  E  E  E      E   E   E   E   E   E   E   E   
--------------------------|----------------------------------|
--------------------------|----------------------------------|
--------------------------|----------------------------------|
--------------------------|----------------------------------|
--8--8--8--8--8--8--8--8--|--10--10--10--10--10--10--10--10--|
--6--6--6--6--6--6--6--6--|---8---8---8---8---8---8---8---8--|


   E   E   E   E   E   E   E   E      E   E   E   E   E   E   E   E   
----------------------------------|----------------------------------|
----------------------------------|----------------------------------|
----------------------------------|----------------------------------|
----------------------------------|----------------------------------|
--10--10--10--10--10--10--10--10--|--10--10--10--10--10--10--10--10--|
---8---8---8---8---8---8---8---8--|---8---8---8---8---8---8---8---8--|


   E   E   E   E   E   E   E   E     E  E  E  E  E  E  E  E   
----------------------------------|--------------------------|
----------------------------------|--------------------------|
----------------------------------|--------------------------|
----------------------------------|--------------------------|
--10--10--10--10--10--10--10--10--|--8--8--8--8--8--8--8--8--|
---8---8---8---8---8---8---8---8--|--6--6--6--6--6--6--6--6--|


  E  E  E  E  E  E  E  E     E  E  E  E  E  E  E  E   
--------------------------|--------------------------|
--------------------------|--------------------------|
--------------------------|--------------------------|
--------------------------|--------------------------|
--8--8--8--8--8--8--8--8--|--6--6--6--6--6--6--6--6--|
--6--6--6--6--6--6--6--6--|--4--4--4--4--4--4--4--4--|


  E  E  E  E  E  E  E  E      E   E   E   E   E   E   E   E   
--------------------------|----------------------------------|
--------------------------|----------------------------------|
--------------------------|----------------------------------|
--------------------------|----------------------------------|
--8--8--8--8--8--8--8--8--|--10--10--10--10--10--10--10--10--|
--6--6--6--6--6--6--6--6--|---8---8---8---8---8---8---8---8--|


                                 Verse 2                                      
  E   E   E  E  E  E  E  E       Q    Q    H           W                 
----------------------------||----------------------|-------------------|
----------------------------||----------------------|-------------------|
----------------------------||*---------------------|-------------------|
----------------------------||*---------------------|-------------------|
----------------------3--6--||---5------------------|-------------------|
--8--11--11--9--9--8--1--4--||---3------------------|-------------------|


                      pick scrape 2nd time                                                   
                                                        PM PM PM PM PM PM  
  W                   E  E  E  E  E  E  E  E       Q    E  E  E  E  E  E   
-------------------|---------------------------||-------------------------|
-------------------|---------------------------||-------------------------|
-------------------|--------------------------*||-------------------------|
-------------------|--x-----------------------*||--5----------------------|
-------------------|--x-----------------3--6---||--3----3--3--3--3--3--3--|
-------------------|--3--4--4--6--6--8--1--4---||-------------------------|


  PM PM PM PM PM PM PM PM    PM PM PM PM PM PM PM PM  
  E  E  E  E  E  E  E  E     E  E  E  E  E  E  E  E   
--------------------------|--------------------------|
--------------------------|--------------------------|
--------------------------|--------------------------|
--------------------------|--------------------------|
--3--3--3--3--3--3--3--3--|--3--3--3--3--3--3--3--3--|
--------------------------|--------------------------|


                             PM PM PM PM PM PM PM PM  
  E  E  E  E  E  E  E  E     E  E  E  E  E  E  E  E   
--------------------------|--------------------------|
--------------------------|--------------------------|
--------------------------|--------------------------|
--------------------------|--------------------------|
--8--6--6--4--4--3--3--6--|--------------------------|
--------------------1--4--|--3--3--3--3--3--3--3--3--|


  PM PM PM PM PM PM PM PM    PM PM PM PM PM PM PM PM                      
  E  E  E  E  E  E  E  E     E  E  E  E  E  E  E  E     W                 
--------------------------|--------------------------|-------------------|
--------------------------|--------------------------|-------------------|
--------------------------|--------------------------|-------------------|
--------------------------|--------------------------|-------------------|
--------------------------|--------------------------|--3----------------|
--3--3--3--3--3--3--3--3--|--3--3--3--3--3--3--3--3--|--1----------------|


      Chorus 2                                                                 
      E   E   E   E   E   E   E   E      E   E   E   E   E   E   E   E   
||-----------------------------------|----------------------------------|
||-----------------------------------|----------------------------------|
||*----------------------------------|----------------------------------|
||*----------------------------------|----------------------------------|
||---10--10--10--10--10--10--10--10--|--10--10--10--10--10--10--10--10--|
||----8---8---8---8---8---8---8---8--|---8---8---8---8---8---8---8---8--|


  E  E  E  E  E  E  E  E     E  E  E  E  E  E  E  E   
--------------------------|--------------------------|
--------------------------|--------------------------|
--------------------------|--------------------------|
--------------------------|--------------------------|
--8--8--8--8--8--8--8--8--|--8--8--8--8--8--8--8--8--|
--6--6--6--6--6--6--6--6--|--6--6--6--6--6--6--6--6--|


  E  E  E  E  E  E  E  E     E  E  E  E  E  E  E  E   
--------------------------|--------------------------|
--------------------------|--------------------------|
--------------------------|--------------------------|
--------------------------|--------------------------|
--6--6--6--6--6--6--6--6--|--8--8--8--8--8--8--8--8--|
--4--4--4--4--4--4--4--4--|--6--6--6--6--6--6--6--6--|


   E   E   E   E   E   E   E   E      E   E   E   E   E   E   E   E     
----------------------------------|-----------------------------------||
----------------------------------|-----------------------------------||
----------------------------------|----------------------------------*||
----------------------------------|----------------------------------*||
--10--10--10--10--10--10--10--10--|--10--10--10--10--10--10--10--10---||
---8---8---8---8---8---8---8---8--|---8---8---8---8---8---8---8---8---||


      Bridge                                                             
      W                   H        Q     Q        W                 
||---------------------|----------------------|--------------------|
||---------------------|----------------------|--------------------|
||*--------------------|----------------------|--------------------|
||*--------------------|----------------------|--------------------|
||---10----------------|--L--------8----10----|--11----------------|
||----8----------------|--L--------6-----8----|---9----------------|


   W                      E   E   E   E   E   E   E   E   
---------------------||----------------------------------|
---------------------||----------------------------------|
--------------------*||----------------------------------|
--------------------*||----------------------------------|
--13-----------------||--10--10--10--10--10--10--10--10--|
--11-----------------||---8---8---8---8---8---8---8---8--|


   E   E   E   E  E  E   E   E      E   E   E   E   E   E   E   E   
--------------------------------|----------------------------------|
--------------------------------|----------------------------------|
--------------------------------|----------------------------------|
--------------------------------|----------------------------------|
--10--10--10--10--8--8--10--10--|--11--11--11--11--11--11--11--11--|
---8---8---8---8--6--6---8---8--|---9---9---9---9---9---9---9---9--|


   E   E   E   E   E   E   E   E      E   E   E   E   E   E   E   E   
----------------------------------|----------------------------------|
----------------------------------|----------------------------------|
----------------------------------|----------------------------------|
----------------------------------|----------------------------------|
--13--13--13--13--13--13--13--13--|--10--10--10--10--10--10--10--10--|
--11--11--11--11--11--11--11--11--|---8---8---8---8---8---8---8---8--|


   E   E   E   E  E  E   E   E      E   E   E   E   E   E   E   E   
--------------------------------|----------------------------------|
--------------------------------|----------------------------------|
--------------------------------|----------------------------------|
--------------------------------|----------------------------------|
--10--10--10--10--8--8--10--10--|--11--11--11--11--11--11--11--11--|
---8---8---8---8--6--6---8---8--|---9---9---9---9---9---9---9---9--|


                                     Verse 3                       
                                     PM PM PM PM PM PM        
   E   E   E   E   E   E  E  E       E  E  E  E  E  E  E  E   
--------------------------------||---------------------------|
--------------------------------||---------------------------|
--------------------------------||*--------------------------|
--------------------------------||*--------------------------|
--13--13--13--13--13--13--3--6--||---------------------3--6--|
--11--11--11--11--11--11--1--4--||---3--3--3--3--3--3--1--4--|


  PM PM PM PM PM PM          PM PM PM PM PM PM PM PM  
  E  E  E  E  E  E  E  E     E  E  E  E  E  E  E  E   
--------------------------|--------------------------|
--------------------------|--------------------------|
--------------------------|--------------------------|
--------------------------|--------------------------|
--------------------3--6--|--------------------------|
--3--3--3--3--3--3--1--4--|--3--3--3--3--3--3--3--3--|


                               PM PM PM PM PM PM        
  E  E  E  E  E  E  E  E   3x  E  E  E  E  E  E  E  E   
---------------------------||--------------------------|
---------------------------||--------------------------|
--------------------------*||--------------------------|
--------------------------*||--------------------------|
--8--6--6--4--4--3--3--6---||--------------------3--6--|
--------------------1--4---||--3--3--3--3--3--3--1--4--|


  PM PM PM PM PM PM          PM PM PM PM PM PM PM PM                          
  E  E  E  E  E  E  E  E     E  E  E  E  E  E  E  E     Q    E  E  Q    Q     
--------------------------|--------------------------|-----------------------|
--------------------------|--------------------------|-----------------------|
--------------------------|--------------------------|-----------------------|
--------------------------|--------------------------|-----------------------|
--------------------3--6--|--------------------------|--5-------5-------5----|
--3--3--3--3--3--3--1--4--|--3--3--3--3--3--3--3--3--|--3-------3-------3----|


      Chorus 3                                                                 
      E   E   E   E   E   E   E   E      E   E   E   E   E   E   E   E   
||-----------------------------------|----------------------------------|
||-----------------------------------|----------------------------------|
||*----------------------------------|----------------------------------|
||*----------------------------------|----------------------------------|
||---10--10--10--10--10--10--10--10--|--10--10--10--10--10--10--10--10--|
||----8---8---8---8---8---8---8---8--|---8---8---8---8---8---8---8---8--|


  E  E  E  E  E  E  E  E     E  E  E  E  E  E  E  E   
--------------------------|--------------------------|
--------------------------|--------------------------|
--------------------------|--------------------------|
--------------------------|--------------------------|
--8--8--8--8--8--8--8--8--|--8--8--8--8--8--8--8--8--|
--6--6--6--6--6--6--6--6--|--6--6--6--6--6--6--6--6--|


  E  E  E  E  E  E  E  E     E  E  E  E  E  E  E  E   
--------------------------|--------------------------|
--------------------------|--------------------------|
--------------------------|--------------------------|
--------------------------|--------------------------|
--6--6--6--6--6--6--6--6--|--8--8--8--8--8--8--8--8--|
--4--4--4--4--4--4--4--4--|--6--6--6--6--6--6--6--6--|


   E   E   E   E   E   E   E   E      E   E   E   E  E  E   E   E   
----------------------------------|--------------------------------|
----------------------------------|--------------------------------|
----------------------------------|--------------------------------|
----------------------------------|--------------------------------|
--10--10--10--10--10--10--10--10--|--10--10--10--10--8--8--10--10--|
---8---8---8---8---8---8---8---8--|---8---8---8---8--6--6---8---8--|


   E   E   E   E   E   E   E   E      E   E   E   E   E   E   E   E   
----------------------------------|----------------------------------|
----------------------------------|----------------------------------|
----------------------------------|----------------------------------|
----------------------------------|----------------------------------|
--11--11--11--11--11--11--11--11--|--13--13--13--13--13--13--13--13--|
---9---9---9---9---9---9---9---9--|--11--11--11--11--11--11--11--11--|


   E   E   E   E   E   E   E   E      E   E   E   E  E  E   E   E   
----------------------------------|--------------------------------|
----------------------------------|--------------------------------|
----------------------------------|--------------------------------|
----------------------------------|--------------------------------|
--10--10--10--10--10--10--10--10--|--10--10--10--10--8--8--10--10--|
---8---8---8---8---8---8---8---8--|---8---8---8---8--6--6---8---8--|


   E   E   E   E   E   E   E   E      E   E   E   E   E   E   E   E     
----------------------------------|-----------------------------------||
----------------------------------|-----------------------------------||
----------------------------------|----------------------------------*||
----------------------------------|----------------------------------*||
--11--11--11--11--11--11--11--11--|--13--13--13--13--13--13--13--13---||
---9---9---9---9---9---9---9---9--|--11--11--11--11--11--11--11--11---||


   E   E   E   E   E   E   E   E      E   E   E   E   E   E   E   E   
----------------------------------|----------------------------------|
----------------------------------|----------------------------------|
----------------------------------|----------------------------------|
----------------------------------|----------------------------------|
--10--10--10--10--10--10--10--10--|--10--10--10--10--10--10--10--10--|
---8---8---8---8---8---8---8---8--|---8---8---8---8---8---8---8---8--|


  E  E  E  E  E  E  E  E     E  E  E  E  E  E  E  E     W                 
--------------------------|--------------------------|-------------------|
--------------------------|--------------------------|-------------------|
--------------------------|--------------------------|-------------------|
--------------------------|--------------------------|-------------------|
--8--8--8--8--8--8--8--8--|--8--8--8--8--8--8--8--8--|--6----------------|
--6--6--6--6--6--6--6--6--|--6--6--6--6--6--6--6--6--|--4----------------|


  W                    W                  
-------------------|--------------------||
-------------------|--------------------||
-------------------|--------------------||
-------------------|--------------------||
--8----------------|--10----------------||
--6----------------|---8----------------||



Duration Legend
---------------
W - whole
H - half
Q - quarter
E - 8th

Tablature Legend
----------------
L - tied note
PM - palm mute






Comments


Popular Danko Jones tabs & chords
Bounce Bass Tabs
Bounce 2 Bass Tabs
I Think Bad Thoughts Bass Tabs
Lovercall Bass Tabs
Sleep Is The Enemy Bass Tabs
Bounce Tabs
First Date Tabs
King Of Magazines Tabs
She's Drugs Tabs
The Mango Kid Tabs


Song lyrics



↑ Back to top | Tablatures and chords are parodies/interpretations of the original songs. You may use it for private study, scholarship, research or language learning purposes only
© 2014 AZChords.com Contact us | Privacy policy | DMCA | Add/correct tabs | Request tabs | Top 50 tabs