» » »

I Think Bad Thoughts Tabs (ver.1)

Artists:  A B C D E F G H I J K L M N O P Q R S T U V W X Y Z # 

I Think Bad Thoughts Tabs (ver.1)

Danko Jones
Rating:
5/5 (3 votes)

Tabs too difficult? Try these video lessons and learn fast.
                Danko Jones - I Think Bad Thoughts

Instrument: Guitar
Tuning: eBGDAE



Verse

e||----------------------------------|
B||----------------------------------|
G||----------------------------------|
D||-6--5--------3-5--5-6--6-8--8-10--|
A||-6--5--------3-5--5-6--6-8--8-10--|
E||-4--3-(22x)--1-3--3-4--4-6--6-8---| x3
pm     *

e||---------------|
B||---------------|
G||---------------|
D||-6--5-------3--|
A||-6--5-------3--|
E||-4--3-(22x)-1--|
pm     *  

Chorus

e||----------------------------------|
B||----------------------------------|
G||-5------3------------3-----5------|
D||-5------3------6-----3-----5------|
A||-3-x16--1-x16--6-----1-x8--3-x16--|
E||---------------4-x8---------------|

e||----------------------------------------------------|
B||----------------------------------------------------|
G||-5------3------------3-----5------------------------|
D||-5------3------6-----3-----5------------------------|
A||-3-x16--1-x16--6-----1-x8--3-x8--8-6--6-4--4-3------|
E||---------------4-x8-----------------------------1-4-|


Verse

e||----------------------------|----------------|
B||----------------------------|----------------|
G||----------------------------|----------------|
D||-5-------5-6--6-8--8-10-3-6-|-5-------3------|
A||-5-------5-6--6-8--8-10-3-6-|-5-------3------|
E||-3-(24x)-3-4--4-6--6-8--1-4-|-3-(24x)-1-(8x)-|
pm  *                            *       *

e||----------------------------|----------------|
B||----------------------------|----------------|
G||-5--------------------------|----------------|
D||-5--------------------------|-5-------3~-----|
A||-3-(24x)-8-6--6-4--4-3------|-5-------3~-----|
E||------------------------1-4-|-3-(24x)-1~-----|
pm  *                            *


Chorus

e||----------------------------------|
B||----------------------------------|
G||-5------3------------3-----5------|
D||-5------3------6-----3-----5------|
A||-3-x16--1-x16--6-----1-x8--3-x16--|
E||---------------4-x8---------------| x2


e||-----------------------------|
B||-----------------------------|
G||-5-------3--5--6-----8-------|
D||-5-------3--5--6-----8-------|
A||-3-------1--3--4-----6-------|
E||-----------------------------| x2

e||-----------------------------------------------------------------|
B||-----------------------------------------------------------------|
G||-5-5-5-5-5-5-5-5-5-5-5-5-3-3-5-5-6-6-6-6-6-6-6-6-8-8-8-8-8-8-8-8-|
D||-5-5-5-5-5-5-5-5-5-5-5-5-3-3-5-5-6-6-6-6-6-6-6-6-8-8-8-8-8-8-8-8-|
A||-3-3-3-3-3-3-3-3-3-3-3-3-1-1-3-3-4-4-4-4-4-4-4-4-6-6-6-6-6-6-6-6-|
E||-----------------------------------------------------------------| x2


Verse

e||-----------------|-----------------|---------------------|---------------|
B||-----------------|-----------------|---------------------|---------------|
G||-----------------|-----------------|---------------------|---------------|
D||-3-6-5-5-5-5-5-5-|-3-6-5-5-5-5-5-5-|-3-6-5-5-5-5-5-5-5-5-|---------------|
A||-3-6-5-5-5-5-5-5-|-3-6-5-5-5-5-5-5-|-3-6-5-5-5-5-5-5-5-5-|-8-6--6-4--4-3-|
E||-1-4-3-3-3-3-3-3-|-1-4-3-3-3-3-3-3-|-1-4-3-3-3-3-3-3-3-3-|---------------| x3
pm        * * * * *         * * * * *         * * * * * * * 

e||-----------------|-----------------|---------------------|---------------|
B||-----------------|-----------------|---------------------|---------------|
G||-----------------|-----------------|---------------------|---------------|
D||-3-6-5-5-5-5-5-5-|-3-6-5-5-5-5-5-5-|-3-6-5-5-5-5-5-5-5-5-|-5----5----5---|
A||-3-6-5-5-5-5-5-5-|-3-6-5-5-5-5-5-5-|-3-6-5-5-5-5-5-5-5-5-|-5----5----5---|
E||-1-4-3-3-3-3-3-3-|-1-4-3-3-3-3-3-3-|-1-4-3-3-3-3-3-3-3-3-|-3----3----3---|
pm        * * * * *         * * * * *         * * * * * * * 

Chorus

e||-------------------------------------------------------------------------|
B||-------------------------------------------------------------------------|
G||-5------3------------3-----5-----3-3-5-5-6-6-6-6-6-6-6-6-8-8-8-8-8-8-8-8-|
D||-5------3------6-----3-----5-----3-3-5-5-6-6-6-6-6-6-6-6-8-8-8-8-8-8-8-8-|
A||-3-x16--1-x16--6-----1-x8--3-x12-1-1-3-3-4-4-4-4-4-4-4-4-6-6-6-6-6-6-6-6-|
E||---------------4-x8------------------------------------------------------| 

e||-----------------------------------------------------------------|
B||-----------------------------------------------------------------|
G||-5-5-5-5-5-5-5-5-5-5-5-5-3-3-5-5-6-6-6-6-6-6-6-6-8-8-8-8-8-8-8-8-|
D||-5-5-5-5-5-5-5-5-5-5-5-5-3-3-5-5-6-6-6-6-6-6-6-6-8-8-8-8-8-8-8-8-|
A||-3-3-3-3-3-3-3-3-3-3-3-3-1-1-3-3-4-4-4-4-4-4-4-4-6-6-6-6-6-6-6-6-|
E||-----------------------------------------------------------------|

e||-------------------------------------------------------------------------|
B||-------------------------------------------------------------------------|
G||-5------3------------3-----5-----3-3-5-5-6-6-6-6-6-6-6-6-8-8-8-8-8-8-8-8-|
D||-5------3------6-----3-----5-----3-3-5-5-6-6-6-6-6-6-6-6-8-8-8-8-8-8-8-8-|
A||-3-x16--1-x16--6-----1-x8--3-x12-1-1-3-3-4-4-4-4-4-4-4-4-6-6-6-6-6-6-6-6-|
E||---------------4-x8------------------------------------------------------| 

e||-----------------------------------------------------------------|
B||-----------------------------------------------------------------|
G||-5-5-5-5-5-5-5-5-5-5-5-5-3-3-5-5-6-6-6-6-6-6-6-6-8-8-8-8-8-8-8-8-|
D||-5-5-5-5-5-5-5-5-5-5-5-5-3-3-5-5-6-6-6-6-6-6-6-6-8-8-8-8-8-8-8-8-|
A||-3-3-3-3-3-3-3-3-3-3-3-3-1-1-3-3-4-4-4-4-4-4-4-4-6-6-6-6-6-6-6-6-|
E||-----------------------------------------------------------------|

e||-----------------------------|
B||-----------------------------|
G||-5------3-----------3~---5~--|
D||-5------3------6~---3~---5~--|
A||-3-x16--1-x16--6~---1~---3~--|
E||---------------4~------------|
            
Tabs too difficult? Try these video lessons and learn fast.


comments powered by Disqus
↑ Back to top | Tablatures and chords are parodies/interpretations of the original songs. You may use it for private study, scholarship, research or language learning purposes only