» » »

Danko Jones, Finger Tabs (ver.2)

Artists:  A B C D E F G H I J K L M N O P Q R S T U V W X Y Z # 

Finger Tabs (ver.2)

Danko Jones Tabs
Rating:
5/5 (1 vote)
Hard to play? Try these video lessons and learn fast.
                
~~~~~~~~~~~~~~~~~~

This is one of my favourites from the album, very straight riff-rock.
Should be 100% correct. Enjoy it! :)

Notes: standard-tuning

Verse:
e:-------------------------------|------------------------------|
b:-------------------------------|------------------------------|
G:-------------------------------|--------      __      --------|   4x
D:-------------------------------|--------              --------|
A:-5-5-2----5---5-2----5---5-2---|-5-5-0------------------------|
E:-3-3-0----3---3-0----3---3-0---|-3-3-2------------------------|
                                        Nobody really cares, what...
Bridge/Main Riff:
e:-------------------------------|
b:-------------------------------|
G:-------------------------------|   3x
D:-------------------------------|
A:-5-5-2----5---5-2----5---5-2---|
E:-3-3-0----3---3-0----3---3-0---|
So this is what you do...

Chorus:
e:----------------------------|------------------------------|
b:----------------------------|------------------------------|
G:----------------------------|------------------------------|
D:----------------------------|------------------------------|
A:-8----8----8----8----8---7--|-5-5-2----5---5-2----2---5-2--|
E:-6----6----6----6----6---5--|-3-3-0----3---3-0----0---3-0--|
   You get, you get, ...    the finger...



e:-------------------------------|
b:-------------------------------|
G:-------------------------------|   4x
D:-------------------------------|
A:-8-7-5-2-----------------------|
E:-6-5-3-0-----------------------|
            give it to 'em...

e:---------------------------|
b:---------------------------|
G:---------------------------|   
D:---------------------------|
A:-2---2---2---2---2---2-----|
E:-0---0---0---0---0---0-----|
   Now - I - give...

Main Riff
Chorus

End
            

comments powered by Disqus
↑ Back to top | Danko Jones Tabs for Finger. Lyrics for acoustic guitar and electric guitar. Tablatures and chords are parodies/interpretations of the original songs. You may use it for private study, scholarship, research or language learning purposes only