>
 >
Caramel City

Caramel City Guitar Tabs

Danko Jones - Caramel City chords, tabs, tablatures, lyrics

Guitar lessons | Add/correct | Request | Top 50 tabs Artists:  A B C D E F G H I J K L M N O P Q R S T U V W X Y Z 0-9

Caramel City Guitar Tabs – Danko Jones

CD, Sheet music, Poster

Do you like Caramel City? Share with your friends now
Bass TabsTabs
Danko Jones - Caramel City

Instrument: Guitar
Tuning: eBGDAE



BassIntro


Verse

e||-----------|
B||-----------|
G||-7-9-------|
D||-7-9-9-----|
A||-5-7-9-----|
E||-----7-----| x4


Chorus

e||-----|
B||-----|
G||-7-9-|
D||-7-9-|
A||-5-7-|
E||-----|

e||------------------------------|
B||------------------------------|
G||------------------------------|
D||-9---7-9--7-9-----7--7--7-7-7-|
A||-9---7-9--7-9---7-7--7--7-7-7-|
E||-7---5-7--5-7---0-5--5--5-5-5-| x3

e||--------------------------|
B||--------------------------|
G||--------------------------|
D||-9---7-9--7-9-----7--7--7-|
A||-9---7-9--7-9---7-7--7--7-|
E||-7---5-7--5-7---0-5--5--5-|


Verse

e||-----------|
B||-----------|
G||-7-9-------|
D||-7-9-9-----|
A||-5-7-9-----|
E||-----7-----| x4


Chorus

e||-----|
B||-----|
G||-7-9-|
D||-7-9-|
A||-5-7-|
E||-----| x3

e||--------------------------------|-----------------|
B||--------------------------------|-----------------|
G||--------------------------------|-----------------|
D||-9---7-9--7-9-----7--7--7-7-7-9-|-------9-9-9-9-9-|
A||-9---7-9--7-9---7-7--7--7-7-7-9-|-------9-9-9-9-9-|
E||-7---5-7--5-7---0-5--5--5-5-5-7-|-------7-7-7-7-7-|


Break

e||--------------------------------|
B||--------------------------------|
G||-9-9-9-7--7-7-7-7-7-7-7-7-7-7-7-|
D||-9-9-9-7--7-7-7-7-7-7-7-7-7-7-7-|
A||-7-7-7-5--5-5-5-5-5-5-5-5-5-5-5-|
E||--------------------------------| x3
pm           * * * * * * * * * * * 

e||------------------------------|
B||------------------------------|
G||-9----------------------------|
D||-9-7-9---7-9--7-9-----7--7--7-|
A||-7-7-9---7-9--7-9---7-7--7--7-|
E||---5-7---5-7--5-7---0-5--5--5-|

e||--------------------------------|
B||--------------------------------|
G||-9-9-9-7--7-7-7-7-7-7-7-7-7-7-7-|
D||-9-9-9-7--7-7-7-7-7-7-7-7-7-7-7-|
A||-7-7-7-5--5-5-5-5-5-5-5-5-5-5-5-|
E||--------------------------------| x3
pm           * * * * * * * * * * * 


Solo Part     

Guitar #1          <   x3   >
e||-----|------------------------------|
B||-----|------------------------------|
G||-9---|------------------------------|
D||-9-7-|-9---7-9--7-9-----7--7--7-7-7-|
A||-7-7-|-9---7-9--7-9---7-7--7--7-7-7-|
E||---5-|-7---5-7--5-7---0-5--5--5-5-5-|

e||--------------------------|
B||--------------------------|
G||--------------------------|
D||-9---7-9--7-9-----7--7--7-|
A||-9---7-9--7-9---7-7--7--7-|
E||-7---5-7--5-7---0-5--5--5-|

Guitar #2
e||---------------------|-------------------------------|
B||---------------------|-------------------------------|
G||---------------------|-----7-9-9b--9--7--9b--7-------|
D||-----7-9--9--7-9---9-|-7-9---------------------9---9-|
A||-7-9-----------------|-------------------------------|
E||---------------------|-------------------------------|

e||-----------------------------------------------------|
B||-----------------------------------------------------|
G||-7--7-7-7-11-11-11-11-14-14-14-14-14-14-14-16~-------|
D||-----------------------------------------------------|
A||-----------------------------------------------------|
E||-----------------------------------------------------|


Verse

e||-----------|
B||-----------|
G||-7-9-------|
D||-7-9-9-----|
A||-5-7-9-----|
E||-----7-----| x3

e||-----------|-----------|-----------|-----------|
B||-----------|-----------|-----------|-----------|
G||-7-9-------|-9-9-7-----|-7-9-------|-9-9-7-----|
D||-7-9-9-----|-9-9-7-----|-7-9-9-----|-9-9-7-----|
A||-5-7-9-----|-7-7-5-----|-5-7-9-----|-7-7-5-----|
E||-----7-----|-----------|-----7-----|-----------| x2


Chorus

e||-----|
B||-----|
G||-7-9-|
D||-7-9-|
A||-5-7-|
E||-----|

e||------------------------------|
B||------------------------------|
G||------------------------------|
D||-9---7-9--7-9-----7--7--7-7-7-|
A||-9---7-9--7-9---7-7--7--7-7-7-|
E||-7---5-7--5-7---0-5--5--5-5-5-| 

end with
e||-----------|
B||-----------|
G||-7-9-------|
D||-7-9-9-----|
A||-5-7-9-----|
E||-----7-----| 





Comments


Popular Danko Jones tabs & chords
Love Is Unkind Bass Tabs
Lovercall Bass Tabs
Sleep Is The Enemy Bass Tabs
Baby Hates Me 2 Tabs
First Date Tabs
First Date 1 Tabs
I Want You 1 Tabs
Tonight Is Fine 1 Tabs
When Will I See You Tabs
I Think Bad Thoughts Ukulele


Song lyrics



↑ Back to top | Tablatures and chords are parodies/interpretations of the original songs. You may use it for private study, scholarship, research or language learning purposes only
© 2014 AZChords.com Contact us | Privacy policy | DMCA | Add/correct tabs | Request tabs | Top 50 tabs