» » »

Danko Jones, Apology Accepted Tabs (ver.2)

Artists:  A B C D E F G H I J K L M N O P Q R S T U V W X Y Z # 

Apology Accepted Tabs (ver.2)

Danko Jones Tabs
Rating:
0/5 (0 votes)
Apology Accepted lessons Tabs too difficult? Try these video lessons and learn fast
                Intro
|-----------------------------------------------------------------|
|-----------------------------------------------------------------|
|-----------------------------------------------------------------|
|--9-9-9-9-9------------------------------------------------------|
|--7-7-7-7-7-10-10-7-7-7---7-9-10-10-10-10-10-5-5-2-2-2-----------|
|-------------8-8--9-9-9---5-7-8--8--8--8--8--3-3-0-0-0-----------|

Pre-Chorus
|-----------------------------------------------------------------|
|-----------------------------------------------------------------|
|-----------------------------------------------------------------|
|-----------------------------------------------------------------|
|-7-10-10---10-7-7---10-5-5----5-2-2------------------------------|
|-5-8--8----8--5-5----8-3-3----3-0-0------------------------------|

Chorus
|-----------------------------------------------------------------|
|-----------------------------------------------------------------|
|-----------------------------------------------------------------|
|-----------------------------------------------------------------|
|-9999999999999999--1010101010101010--7777777777777777------------|
|-7777777777777777--8888888888888888--5555555555555555------------|


|-----------------------------------------------------------------|
|-----------------------------------------------------------------|
|-----------------------------------------------------------------|
|-----------------------------------------------------------------|
|-2222222222222222------------------------------------------------|
|-0000000000000000------------------------------------------------|

-
|-----------------------------------------------------------------|
|-----------------------------------------------------------------|
|-----------------------------------------------------------------|
|-----------------------------------------------------------------|
|-9999999999999999--1010101010101010--7777777777777777------------|
|-7777777777777777--8888888888888888--5555555555555555------------|


|-----------------------------------------------------------------|
|-----------------------------------------------------------------|
|-----------------------------------------------------------------|
|-----------------------------------------------------------------|
|-5-4-2-2---------------------------------------------------------|
|-3-2-0-0---------------------------------------------------------|

Verse
|-----------------------------------------------------------------|
|-----------------------------------------------------------------|
|-----------------------------------------------------------------|
|--9-9-9-9-9------------------------------------------------------|
|--7-7-7-7-7-10-10-7-7-7---7-9-10-10-10-10-10-5-5-2-2-2-----------|
|-------------8-8--9-9-9---5-7-8--8--8--8--8--3-3-0-0-0-----------|


Pre-Chorus
|-----------------------------------------------------------------|
|-----------------------------------------------------------------|
|-----------------------------------------------------------------|
|-----------------------------------------------------------------|
|-7-10-10---10-7-7---10-5-5----5-2-2------------------------------|
|-5-8--8----8--5-5----8-3-3----3-0-0------------------------------|

Chorus
|-----------------------------------------------------------------|
|-----------------------------------------------------------------|
|-----------------------------------------------------------------|
|-----------------------------------------------------------------|
|-9999999999999999--1010101010101010--7777777777777777------------|
|-7777777777777777--8888888888888888--5555555555555555------------|
                                                               \x3
                                                               /
|-----------------------------------------------------------------|
|-----------------------------------------------------------------|
|-----------------------------------------------------------------|
|-----------------------------------------------------------------|
|-2222222222222222------------------------------------------------|
|-0000000000000000------------------------------------------------|


|-----------------------------------------------------------------|
|-----------------------------------------------------------------|
|-----------------------------------------------------------------|
|-----------------------------------------------------------------|
|-9999999999999999--1010101010101010--7777777777777777------------|
|-7777777777777777--8888888888888888--5555555555555555------------|


|-----------------------------------------------------------------|
|-----------------------------------------------------------------|
|-----------------------------------------------------------------|
|------------------5-------7-------------------5-------7----------|
|-5-4-2-2----5-4---3-5-4---5-5-4-2-2---2-5-4---3-5-4---5-5-4-2-2--|
|-3-2-0-0----3-2-0---3-2-0---3-2-0-0---0-3-2-0---3-2-0---3-2-0-0--|



Verse
|-----------------------------------------------------------------|
|-----------------------------------------------------------------|
|-----------------------------------------------------------------|
|--9-9-9-9-9------------------------------------------------------|
|--7-7-7-7-7-10-10-7-7-7---7-9-10-10-10-10-10-5-5-2-2-2-----------|
|-------------8-8--9-9-9---5-7-8--8--8--8--8--3-3-0-0-0-----------|

Chorus
|-----------------------------------------------------------------|
|-----------------------------------------------------------------|
|-----------------------------------------------------------------|
|-----------------------------------------------------------------|
|-9999999999999999--1010101010101010--7777777777777777------------|
|-7777777777777777--8888888888888888--5555555555555555------------|



|-----------------------------------------------------------------|
|-----------------------------------------------------------------|
|-----------------------------------------------------------------|
|-----------------------------------------------------------------|
|-5-4-2-2---------------------------------------------------------|
|-3-2-0-0---------------------------------------------------------|
            
Submit corrections

comments powered by Disqus
↑ Back to top | Danko Jones Tabs for Apology Accepted. Lyrics for acoustic guitar and electric guitar. Tablatures and chords are parodies/interpretations of the original songs. You may use it for private study, scholarship, research or language learning purposes only