» » »

La Casa De Dios Tabs (ver.1)

Artists:  A B C D E F G H I J K L M N O P Q R S T U V W X Y Z # 

La Casa De Dios Tabs (ver.1)

Danilo Montero
Rating:
0/5 (0 votes)

Hard to play? Try these video lessons and learn fast.
                                 La Casa de Dios - Danilo Montero
----------------------------------------------------------------------------
This is the after the first chorus SOLO!!
Tuning:EADGBE

e|----9/10---------------------------------------------------------------------|
B|---------10/12\10-----10-------------8----12-12-10-8h10p8--------------------|
G|-------------------11------7/9-7---------------------------------------------|
D|----------------------------------7/9----------------------------------------|
A|-----------------------------------------------------------------------------|
E|-----------------------------------------------------------------------------|


e|----------------------------------------10/15^~-----------------------------|
B|----------------------------------8/12--------------------------------------|
G|------9-7-6--------------------7--------------------------------------------|
D|------------7------------5/7/9----------------------------------------------|
A|--------------7~-----3h5----------------------------------------------------|
E|----------------------------------------------------------------------------|


| /  slide up
| \  slide down
| h  hammer-on
| p  pull-off
| ~  vibrato
            
Hard to play? Try these video lessons and learn fast. | Correct




comments powered by Disqus
↑ Back to top | Tablatures and chords are parodies/interpretations of the original songs. You may use it for private study, scholarship, research or language learning purposes only