» » »

Lmaa Tabs (ver.1)

Artists:  A B C D E F G H I J K L M N O P Q R S T U V W X Y Z # 

Lmaa Tabs (ver.1)

Daniel Wirtz
Rating:
5/5 (1 vote)

Tabs too difficult? Try these video lessons and learn fast.
                Band:           Wirtz



That's my first Tab...
Much fun with this great song!





Intro

E|--------------------------|
B|--------------------------|
G|--------------------------|
D|-7-7--7-7-7--3-3-3--5-5-5-|
A|-7-7--7-7-7--3-3-3--5-5-5-|
D|-7-7--7-7-7--3-3-3--5-5-5-| x1


E|----------------------------|
B|----------------------------|
G|----------------------------|
D|-7-7-7--7-7-7--3-3-3--5-5-5-|
A|-7-7-7--7-7-7--3-3-3--5-5-5-|
D|-7-7-7--7-7-7--3-3-3--5-5-5-| x7


Verse 1

E|----------------------------|
B|----------------------------|
G|----------------------------|
D|-7-7-7--7-7-7--3-3-3--5-5-5-|
A|-7-7-7--7-7-7--3-3-3--5-5-5-|
D|-7-7-7--7-7-7--3-3-3--5-5-5-| x8


Chorus 1

E|-------------------------------------------------------------------------|
B|-------------------------------------------------------------------------|
G|-------------------------------------------------------------------------|
D|-3-3-3-3-3-3-3-3-5-5-5-5-5-5-5-5-7-7-7-7-7-7-7-7-10-10-10-10-10-10-10-10-|
A|-3-3-3-3-3-3-3-3-5-5-5-5-5-5-5-5-7-7-7-7-7-7-7-7-10-10-10-10-10-10-10-10-|
D|-3-3-3-3-3-3-3-3-5-5-5-5-5-5-5-5-7-7-7-7-7-7-7-7-10-10-10-10-10-10-10-10-| x4


E|------------------------------------------------------|
B|------------------------------------------------------|
G|------------------------------------------------------|
D|-3-3--3-3-3--2-2-2--2-2-2--7-7-7--7-7-7--7-7-7--5-5-5-|
A|-3-3--3-3-3--2-2-2--2-2-2--7-7-7--7-7-7--7-7-7--5-5-5-|
D|-3-3--3-3-3--2-2-2--2-2-2--7-7-7--7-7-7--7-7-7--5-5-5-| x1


E|--------------------------------------------------------|
B|--------------------------------------------------------|
G|--------------------------------------------------------|
D|-3-3-3--3-3-3--2-2-2--2-2-2--7-7-7--7-7-7--7-7-7--7-7-7-|
A|-3-3-3--3-3-3--2-2-2--2-2-2--7-7-7--7-7-7--7-7-7--7-7-7-|
D|-3-3-3--3-3-3--2-2-2--2-2-2--7-7-7--7-7-7--7-7-7--7-7-7-| x1


Bridge 1

E|------------------------------------------------------|
B|------------------------------------------------------|
G|------------------------------------------------------|
D|-7-7--7-7-7--3-3-3--5-5-5--7-7-7--7-7-7--3-3-3--5-5-5-|
A|-7-7--7-7-7--3-3-3--5-5-5--7-7-7--7-7-7--3-3-3--5-5-5-|
D|-7-7--7-7-7--3-3-3--5-5-5--7-7-7--7-7-7--3-3-3--5-5-5-| x1


Verse 2

E|----------------------------|
B|----------------------------|
G|----------------------------|
D|-7-7-7--7-7-7--3-3-3--5-5-5-|
A|-7-7-7--7-7-7--3-3-3--5-5-5-|
D|-7-7-7--7-7-7--3-3-3--5-5-5-| x8


Chorus 2

E|-------------------------------------------------------------------------|
B|-------------------------------------------------------------------------|
G|-------------------------------------------------------------------------|
D|-3-3-3-3-3-3-3-3-5-5-5-5-5-5-5-5-7-7-7-7-7-7-7-7-10-10-10-10-10-10-10-10-|
A|-3-3-3-3-3-3-3-3-5-5-5-5-5-5-5-5-7-7-7-7-7-7-7-7-10-10-10-10-10-10-10-10-|
D|-3-3-3-3-3-3-3-3-5-5-5-5-5-5-5-5-7-7-7-7-7-7-7-7-10-10-10-10-10-10-10-10-| x4


E|------------------------------------------------------|
B|------------------------------------------------------|
G|------------------------------------------------------|
D|-3-3--3-3-3--2-2-2--2-2-2--7-7-7--7-7-7--7-7-7--5-5-5-|
A|-3-3--3-3-3--2-2-2--2-2-2--7-7-7--7-7-7--7-7-7--5-5-5-|
D|-3-3--3-3-3--2-2-2--2-2-2--7-7-7--7-7-7--7-7-7--5-5-5-| x1


E|--------------------------------------------------------|
B|--------------------------------------------------------|
G|--------------------------------------------------------|
D|-3-3-3--3-3-3--2-2-2--2-2-2--7-7-7--7-7-7--7-7-7--7-7-7-|
A|-3-3-3--3-3-3--2-2-2--2-2-2--7-7-7--7-7-7--7-7-7--7-7-7-|
D|-3-3-3--3-3-3--2-2-2--2-2-2--7-7-7--7-7-7--7-7-7--7-7-7-| x1


Bridge 2

E|------------------------------------------------------------------------------|
B|------------------------------------------------------------------------------|
G|-14-14-14-14-14-14--10-10-10-10-10-10--12-12-12-12-12-12----------------------|
D|-14-14-14-14-14-14--10-10-10-10-10-10--12-12-12-12-12-12--5-5-5-5-10-10-10-10-|
A|-12-12-12-12-12-12---8--8--8--8--8--8--10-10-10-10-10-10--5-5-5-5-10-10-10-10-|
D|----------------------------------------------------------5-5-5-5-10-10-10-10-| x2


E|---------------------------------------------------------------------|
B|---------------------------------------------------------------------|
G|---------------------------------------------------------------------|
D|-7-7-7-7-7-7-7-7-3-3-3-3-3-3-3-3-5-5-5-5-5-5-5-5-5-5-5-5-10-10-10-10-|
A|-7-7-7-7-7-7-7-7-3-3-3-3-3-3-3-3-5-5-5-5-5-5-5-5-5-5-5-5-10-10-10-10-|
D|-7-7-7-7-7-7-7-7-3-3-3-3-3-3-3-3-5-5-5-5-5-5-5-5-5-5-5-5-10-10-10-10-| x2


Solo

E|---------------------------------------------------------|
B|---------------------------------------------------------|
G|--------12--12--------10--10--------12--12---------------|
D|-14--14--------12--12--------14--14--------10--10-12--12-|
A|---------------------------------------------------------|
D|---------------------------------------------------------| x2


Chorus 3

E|-------------------------------------------------------------------------|
B|-------------------------------------------------------------------------|
G|-------------------------------------------------------------------------|
D|-3-3-3-3-3-3-3-3-5-5-5-5-5-5-5-5-7-7-7-7-7-7-7-7-10-10-10-10-10-10-10-10-|
A|-3-3-3-3-3-3-3-3-5-5-5-5-5-5-5-5-7-7-7-7-7-7-7-7-10-10-10-10-10-10-10-10-|
D|-3-3-3-3-3-3-3-3-5-5-5-5-5-5-5-5-7-7-7-7-7-7-7-7-10-10-10-10-10-10-10-10-| x4


E|------------------------------------------------------|
B|------------------------------------------------------|
G|------------------------------------------------------|
D|-3-3--3-3-3--2-2-2--2-2-2--7-7-7--7-7-7--7-7-7--5-5-5-|
A|-3-3--3-3-3--2-2-2--2-2-2--7-7-7--7-7-7--7-7-7--5-5-5-|
D|-3-3--3-3-3--2-2-2--2-2-2--7-7-7--7-7-7--7-7-7--5-5-5-| x1


E|--------------------------------------------------------|
B|--------------------------------------------------------|
G|--------------------------------------------------------|
D|-3-3-3--3-3-3--2-2-2--2-2-2--7-7-7--7-7-7--7-7-7--7-7-7-|
A|-3-3-3--3-3-3--2-2-2--2-2-2--7-7-7--7-7-7--7-7-7--7-7-7-|
D|-3-3-3--3-3-3--2-2-2--2-2-2--7-7-7--7-7-7--7-7-7--7-7-7-| x1
            
Tabs too difficult? Try these video lessons and learn fast.




comments powered by Disqus
↑ Back to top | Tablatures and chords are parodies/interpretations of the original songs. You may use it for private study, scholarship, research or language learning purposes only