» » »

Elf Zeugen Tabs (ver.1)

Artists:  A B C D E F G H I J K L M N O P Q R S T U V W X Y Z # 

Elf Zeugen Tabs (ver.1)

Daniel Wirtz
Rating:
0/5 (0 votes)

Hard to play? Try these video lessons and learn fast.
                Intro/Verse

e|----------------------------------------------------------------------------|
h|----------------------------------------------------------------------------|
g|----------------------------------------------------------------------------|
d|8-8-8-8-8-8-8-8-12-12-12-12-12-12-12-12-8-8-8-8-8-8-8-8-10-10-10-10-7-7-7-7-|
a|6-6-6-6-5-5-5-5-10-10-10-10-9--9--9--9--6-6-6-6-5-5-5-5-8--8--8--8--5-5-5-5-|
d|----------------------------------------------------------------------------|


Pre-Chorus

e|-----------------------------------|
h|-----------------------------------|
g|--5-~--7-~-------------------------|
d|--5-~--7-~--11--10--11-11p10-11p10-|
a|--3-~--5-~--11--10--11-11p10-11p10-|
d|------------11--10--11-11p10-11p10-|


e|--------------------------------------|
h|--------------------------------------|
g|--5-~--7-~----------------------------|
d|--5-~--7-~--11--10--11-11-11p10-11p10-|
a|--3-~--5-~--11--10--11-11-11p10-11p10-|
d|------------11--10--11-11-11p10-11p10-|


Chorus (4x)

e|--------------------------------------------|
h|--------------------------------------------|
g|--------------------------------------------|
d|--5--10--0--1-0--0h1p0-0-0h1p0-0-0-1p0-1p0--|
a|--5--10--0--1-0--0h1p0-0-0h1p0-0-0-1p0-1p0--|
d|--5--10--0--1-0--0h1p0-0-0h1p0-0-0-1p0-1p0--|


Post-Chorus

e|---------------------|------------------------|
h|---------------------|------------------------|
g|--5-~--7-~-----------|--5-~--7-~--------------|
d|--5-~--7-~--11--10---|--5-~--7-~--11--10--11--|
a|--3-~--5-~--11--10---|--3-~--5-~--11--10--11--|
d|------------11--10---|------------11--10--11--|

Mit freundlicher Unterstützung des wirtzmusik.de Forums!
            
Hard to play? Try these video lessons and learn fast. | Correct




comments powered by Disqus
↑ Back to top | Tablatures and chords are parodies/interpretations of the original songs. You may use it for private study, scholarship, research or language learning purposes only