» » »

Ooo Oh Bass tabs (ver.1)

Artists:  A B C D E F G H I J K L M N O P Q R S T U V W X Y Z # 

Ooo Oh Bass tabs (ver.1)

Daniel Wesley
Rating:
1/5 (1 vote)

Hard to play? Try these video lessons and learn fast.
                --------------------|
--------8---7----0--|   Intro - play over repeated wah
----7---------------|               notes
--------------------|

-------------------------------------------------------------|
------------------0--0--0--3---------3-----------------------|
---------0--3------------------0--0--------------------------|
--1--1------------------------------------1--1--1--1--1--1---|
                                                 ^
chorus "ooo oh" - untill "daddy's little secret" |


------------------------|
--------3------0--------|
----0--------------0----|
------------1-----------|
 "you wont be coming back there..." -play untill "ooo oh"
            
Hard to play? Try these video lessons and learn fast. | Correct




comments powered by Disqus
↑ Back to top | Tablatures and chords are parodies/interpretations of the original songs. You may use it for private study, scholarship, research or language learning purposes only