» » »

One Man Mission Tabs (ver.1)

Artists:  A B C D E F G H I J K L M N O P Q R S T U V W X Y Z # 

One Man Mission Tabs (ver.1)

Daniel Wesley
Rating:
0/5 (0 votes)

Tabs too difficult? Try these video lessons and learn fast.
                -----------------------------------------------------------------------------
-----------------------------------------------------------------------------

Tuning: Standard

Another popular Daniel Wesley song that hasn't been tabbed yet. if you have
any requests for songs by him that aren't up yet then e-mail me, enjoi! :)

Intro/Verse:
e|-5-5-x-5-5-x-5-5-x-5-5-x-5-5-x-5-5-x-5-5-x-5-5-x-|
B|-6-6-x-6-6-x-6-6-x-6-6-x-5-5-x-5-5-x-5-5-x-5-5-x-|
G|-7-7-x-7-7-x-7-7-x-7-7-x-6-6-x-6-6-x-6-6-x-6-6-x-|
D|-------------------------------------------------|
A|-------------------------------------------------|
E|-------------------------------------------------|

e|-6-6-x-6-6-x-6-6-x-6-6-x-5-5-x-5-5-x-5-5-x-5-5-x-|
B|-6-6-x-6-6-x-6-6-x-6-6-x-6-6-x-6-6-x-5-5-x-5-5-x-|
G|-7-7-x-7-7-x-7-7-x-7-7-x-5-5-x-5-5-x-6-6-x-6-6-x-|
D|-------------------------------------------------|
A|-------------------------------------------------|
E|-------------------------------------------------|

Chorus:
e|---5-x-----------------6-x-1---1-x-0-|
B|---6-x-----------------6-x-1---1-x-0-|
G|---7-x-----------------7-x-1h2-2-x-1-|
D|---7-x-------7-7-------8-x-1h3-3-x-2-|
A|-5~5-x---7/8-----8-7---8-x-1h3-3-x-2-|
E|-------5~------------6~6-x-1---1-x-0-|

That's that, pretty simple! Play along with the song to the song to get the rhythm down.

- Frazer. 

************************************

| /   slide up
| \   slide down
| h   hammer-on
| p   pull-off
| ~   let ring
| +   harmonic
| x   Mute note
| b   Bend
| pb  Pre-bend
| br  Bend release
| pbr Pre-bend release
| brb Bend release bend

************************************
            
Tabs too difficult? Try these video lessons and learn fast.




comments powered by Disqus
↑ Back to top | Tablatures and chords are parodies/interpretations of the original songs. You may use it for private study, scholarship, research or language learning purposes only