» » »

Daniel Wesley, Nyquil Tabs (ver.1)

Artists:  A B C D E F G H I J K L M N O P Q R S T U V W X Y Z # 

Nyquil Tabs (ver.1)

Daniel Wesley Tabs
 Rating:
4.2/5 (5 votes)
Nyquil lessons Tabs too difficult? Try these video lessons and learn fast
                -------------------------------------------------------------------------------
-------------------------------------------------------------------------------

Tuning: Standard

Another wicked, chill song by Daniel Wesley, definitely one of my favorites. Not quite 
if I heard all the guitar correctly, if not, drop me an e-mail, and I'll correct it! 
:)

Intro: Light strum.
e|-2~--------3~--------5~--------5~--------|
B|-3~--------3~--------7~--------5~--------|
G|-4~--------4~--------7~--------6~--------|
D|-4~--------5~--------7~--------7~--------|
A|-2~--------5~--------5~--------7~--------|
E|-----------3~------------------5~--------|

Verse: You're gonna' have to listen to the song to pick-up the strumming rhythm/pattern 
this one folks.
e|-------2---------3---------5---------5---|
B|-------3---------3---------7---------5---|
G|-------4---------4---------7---------6---|
D|-4-4-4-4-x-------5---7-7-7-7-x-------7---|
A|-2-2-2-2-x-5-5-5-5-x-5-5-5-5-x-7-7-7-7-x-|
E|-----------3-3-3-3-x-----------5-5-5-5-x-|
  "Many miles         "In Wichita Kansas"
             away from here"

Chorus: Not 100% sure about this part..
e|----2~-------0~-------2~-------3~-------2~-------0~-------2~---0~-------3~-|
B|------3~-------2~-------3~-------3~-------3~-------2~-------3~---2~---3~---|
G|--------2~-------3~-------4~-------4~-------2~-------3~-------------4~-----|
D|-------------------(0~)----------------------------------------------------|
A|-(2~)-----------------------(0~)-----(2~)----------------------------------|
E|----------(3~)--------------------------------(3~)-------------------------|
  "Oh, Nyquil, I know this much is true, all I wanna' do is sing the
                                                             blues with you."
Solo: Finishes the song with this.
e|-----2-----2-----2-----2-----2-------2-----2----|
B|-2h3---2h3---2h3---2h3---2h3---3-2h3---2h3---2~-|
G|------------------------------------------------|
D|------------------------------------------------|
A|------------------------------------------------|
E|------------------------------------------------|

Thanks for checkin'er out, please rate my tabs!

- Frazer.

| /  slide up
| \  slide down
| h  hammer-on
| p  pull-off
| ~  vibrato
| +  harmonic
| x  Mute note
===============================================================================
            
Submit corrections

comments powered by Disqus
↑ Back to top | Daniel Wesley Tabs for Nyquil. Lyrics for acoustic guitar and electric guitar. Tablatures and chords are parodies/interpretations of the original songs. You may use it for private study, scholarship, research or language learning purposes only