» » »

My Pony Tabs (ver.1)

Artists:  A B C D E F G H I J K L M N O P Q R S T U V W X Y Z # 

My Pony Tabs (ver.1)

Daniel Wesley
Rating:
5/5 (1 vote)

Hard to play? Try these video lessons and learn fast.
                This is an easy and fun song to play. sorry for verses. Just too weird to tab
out.


Intro:
 gtr. 1/with wah whole song  *doubled here second time
E|--------------------------------|
B|--------------------------------|
G|*-4----xxxx4-4----------------2*|
D|--4----xxxx4-4-x4--2---xxxx2--2-|
A|*-2----xxxx2-2-x4--2---xxxx2--0*|
E|---------------x2--0---xxxx0----|

 *band kicks in *gtr doubled for main riff rest of song
E|--------------------------------|--|
B|--------------------------------|--|
G|*-4----xxxx4-4----------------2*|xx|
D|--4----xxxx4-4-x4--2---xxxx2--2-|xx|
A|*-2----xxxx2-2-x4--2---xxxx2--0*|xx|
E|---------------x2--0---xxxx0----|--|

Verse 1:
gtr. 1 and gtr. 2 only play strings rakes on occasion. easy to figure out

lyrics:
Me and my girl. She don't know what to do. She's tainted me every inch of me.
The girl is loving it.
Me and my girl. She don't know what to do. She's tainted me every inch of me.
The girl is loving it.

Chorus 1:
E|--------------------------------|--|  
B|--------------------------------|--|   Jump on it baby
G|*-4----xxxx4-4----------------2*|xx|   Ride it, my pony
D|--4----xxxx4-4-x4--2---xxxx2--2-|xx|   My saddles waiting 
A|*-2----xxxx2-2-x4--2---xxxx2--0*|xx|   Ride It my pony
E|---------------x2--0---xxxx0----|--|

Verse 2:
guitars do a bit different string rakes

lyrics:
Me and my girl. She don't know what to do. She's tainted me every inch of me.
The girl is loving it.
Me and my girl. She don't know what to do. She's tainted me every inch of me.
The girl is loving it.

              Chorus 2:
E|-----------|----------------------------|    Jump on it baby
B|-----------|----------------------------|    Ride it, my pony
G|7b-7b-7p5--|*4---xxxx4-4--------------2*|    My saddles waiting
D|----------7|-4---xxxx4-4-x4-2---xxxx2-2-|    Ride it my pony
A|-----------|*2---xxxx2-2-x4-2---xxxx2-0*|    Your horny lets do it
E|-----------|-------------x2-0---xxxx0---|4x  Ride it my pony
                                               My saddles waiting
                                               Come on jump on it

Bass solo: sorry just doing guitar
gtr.
E|----------------------------|
B|----------------------------|
G|*4444--44----------------22*|
D|-4444--44--44--2222--22--22-|
A|*2222--22--44--2222--22--00*|
E|-----------22--0000--00-----|3x
   ...   .   .   ...   .   .  p.m.

E|-------------------------------|
B|-------------------------------|
G|-4444--44----------------------|
D|-4444--44--44--2222222---------|
A|-2222--22--44--2222222-7b7b7p5-|
E|-----------22--0000000--------7|
   ...   .   .

Outro Chorus:
E|--------------------------------|
B|--------------------------------|
G|*-4----xxxx4-4----------------2*|
D|--4----xxxx4-4-x4--2---xxxx2--2-|
A|*-2----xxxx2-2-x4--2---xxxx2--0*|
E|---------------x2--0---xxxx0----|4x let last chord ring and feedback last time
            
Hard to play? Try these video lessons and learn fast. | Correct




comments powered by Disqus
↑ Back to top | Tablatures and chords are parodies/interpretations of the original songs. You may use it for private study, scholarship, research or language learning purposes only