>
 >
Lonely Life

Lonely Life Guitar Tabs

Daniel Wesley - Lonely Life chords, tabs, tablatures, lyrics

Guitar lessons | Add/correct | Request | Top 50 tabs Artists:  A B C D E F G H I J K L M N O P Q R S T U V W X Y Z 0-9

Lonely Life Guitar Tabs – Daniel Wesley

CD, Sheet music, Poster

Do you like Lonely Life? Share with your friends now
Tabs
-------------------------------------------------------------------------------
-------------------------------------------------------------------------------

Tuning: Standard

This is a wicked chill song. I love the reggae sound these guys come up with. I know it
complicated, but it's really quite easy, just 'cause there's three guitars. Still sounds
with one though. If you're playin' it on an electric, give it a bit of wah/reverb? Just 
listen to it. Where there's a mute, it's an "up-down" stroke, reggae style. Where
brackets, it's kind of "optional".. a.k.a, sounds good with it, sounds good without it! 
grab your guitars, and have some fun!

Intro:
e|-x--5--5--x--5--5--x--5--5--x--5--5--x--7--7--x--7--7--x--3--3--x--3--3--|
B|-x--7--7--x--7--7--x--5--5--x--5--5--x--7--7--x--7--7--x--3--3--x--3--3--|
G|-x--7--7--x--7--7--x--6--6--x--6--6--x--7--7--x--7--7--x--4--4--x--4--4--|x4
D|-x-(7)(7)-x-(7)(7)-x-(7)(7)-x-(7)(7)-x-(9)(9)-x-(9)(9)-x-(5)(5)-x-(5)(5)-|
A|-x-(5)(5)-x-(5)(5)-x-(7)(7)-x-(7)(7)-x-(9)(9)-x-(9)(9)-x-(5)(5)-x-(5)(5)-|
E|---------------------(5)(5)-x-(5)(5)-x-(7)(7)-x-(7)(7)-x-(3)(3)-x-(3)(3)-|
     "She takes a lone----ly drink..."
                       "movin' herself        uh-oh            oh yeah"


Chorus part 1: Same as Intro
e|-x--5--5--x--5--5--x--5--5--x--5--5--x--7--7--x--7--7--x--3--3--x--3--3--|
B|-x--7--7--x--7--7--x--5--5--x--5--5--x--7--7--x--7--7--x--3--3--x--3--3--|
G|-x--7--7--x--7--7--x--6--6--x--6--6--x--7--7--x--7--7--x--4--4--x--4--4--|x4
D|-x-(7)(7)-x-(7)(7)-x-(7)(7)-x-(7)(7)-x-(9)(9)-x-(9)(9)-x-(5)(5)-x-(5)(5)-|
A|-x-(5)(5)-x-(5)(5)-x-(7)(7)-x-(7)(7)-x-(9)(9)-x-(9)(9)-x-(5)(5)-x-(5)(5)-|
E|---------------------(5)(5)-x-(5)(5)-x-(7)(7)-x-(7)(7)-x-(3)(3)-x-(3)(3)-|

Chorus part 2: Comes in on the third repetition of "Chorus part 1"
e|-------------------------------------------------------------------------|
B|-------------------------------------------------------------------------|
G|-------------------------------------------------------------------------|
D|---00-0-0-4-4-5-4-----------4-4-5-4-----------4-4-5-4-----------4-4-5-4--|
A|---------------------00-0-0------------22-2-2----------------------------|
E|---------------------------------------------------------33-3-3----------|
    "She leads a lone------ly life..---------------------------------------|             
                        x2
e|-------------------------------------------------------------------------|
B|-------------------------------------------------------------------------|
G|-------------------------------------------------------------------------|
D|---00-0-0-4-4-5-4-----------4-4-5-4-----------4-4-5-4-----------5-5-4-0--|
A|---------------------00-0-0------------22-2-2----------------------------|
E|---------------------------------------------------------33-3-3----------|
                       "finding her way     back home      at night"


Verse:
e|--7----7----7----7----3----3----3----3----7----7----7----7----3----3----5----5--|
B|--7----7----7----7----3----3----3----3----7----7----7----7----3----3----5----5--|
G|--7----7----7----7----4----4----4----4----7----7----7----7----4----4----6----6--|
D|-(9)--(9)--(9)--(9)--(5)--(5)--(5)--(5)--(9)--(9)--(9)--(9)--(5)--(5)--(7)--(7)-|
A|-(9)--(9)--(9)--(9)--(5)--(5)--(5)--(5)--(9)--(9)--(9)--(9)--(5)--(5)--(7)--(7)-|
E|-(7)--(7)--(7)--(7)--(3)--(3)--(3)--(3)--(7)--(7)--(7)--(7)--(3)--(3)--(5)--(5)-|
        "...Where to go         when the moon       shines down upon her face"

e|--7----7----7----7----3----3----3----3----7----7----7----7------3-------5-------|
B|--7----7----7----7----3----3----3----3----7----7----7----7--------3-------5-----|
G|--7----7----7----7----4----4----4----4----7----7----7----7----4-----4/6-----6---|
D|-(9)--(9)--(9)--(9)--(5)--(5)--(5)--(5)--(9)--(9)--(9)--(9)---------------------|
A|-(9)--(9)--(9)--(9)--(5)--(5)--(5)--(5)--(9)--(9)--(9)--(9)---------------------|
E|-(7)--(7)--(7)--(7)--(3)--(3)--(3)--(3)--(7)--(7)--(7)--(7)---------------------|
          "She's got no phone   one to call         one to call   she gets on"


Chorus part 1:
e|-x--5--5--x--5--5--x--5--5--x--5--5--x--7--7--x--7--7--x--3--3--x--3--3----|
B|-x--7--7--x--7--7--x--5--5--x--5--5--x--7--7--x--7--7--x--3--3--x--3--3----|
G|-x--7--7--x--7--7--x--6--6--x--6--6--x--7--7--x--7--7--x--4--4--x--4--4----|
D|-x-(7)(7)-x-(7)(7)-x-(7)(7)-x-(7)(7)-x-(9)(9)-x-(9)(9)-x-(5)(5)-x-(5)(5)---|
A|-x-(5)(5)-x-(5)(5)-x-(7)(7)-x-(7)(7)-x-(9)(9)-x-(9)(9)-x-(5)(5)-x-(5)(5)---|
E|---------------------(5)(5)-x-(5)(5)-x-(7)(7)-x-(7)(7)-x-(3)(3)-x-(3)(3)---|
    "She leads a lone--------------------------------------------------------|ly life..."
                       "finding her way     back home         alright"      x2

Chorus part 3:
e|-----5-----5-----------------------------5-----5----------------7~-------|
B|-5h7---5h7---5~----------------------5h7---5h7---5~-------------5~-------|
G|-------------------------------------------------------------------------|
D|-------------------------------------------------------------------------|
A|-------------------------------------------------------------------------|
E|-------------------------------------------------------------------------|

*Then repeat.* On the final chorus, located above this ^, add "Chorus part 3" in. It
look/sound something like this:

Chorus part 1:
e|-x--5--5--x--5--5--x--5--5--x--5--5--x--7--7--x--7--7--x--3--3--x--3--3--|
B|-x--7--7--x--7--7--x--5--5--x--5--5--x--7--7--x--7--7--x--3--3--x--3--3--|
G|-x--7--7--x--7--7--x--6--6--x--6--6--x--7--7--x--7--7--x--4--4--x--4--4--|
D|-x-(7)(7)-x-(7)(7)-x-(7)(7)-x-(7)(7)-x-(9)(9)-x-(9)(9)-x-(5)(5)-x-(5)(5)-|
A|-x-(5)(5)-x-(5)(5)-x-(7)(7)-x-(7)(7)-x-(9)(9)-x-(9)(9)-x-(5)(5)-x-(5)(5)-|
E|---------------------(5)(5)-x-(5)(5)-x-(7)(7)-x-(7)(7)-x-(3)(3)-x-(3)(3)-|

Chorus part 2:
e|-------------------------------------------------------------------------|
B|-------------------------------------------------------------------------|
G|-------------------------------------------------------------------------|
D|---00-0-0-4-4-5-4-----------4-4-5-4-----------4-4-5-4-----------4-4-5-4--|
A|---------------------00-0-0------------22-2-2----------------------------|
E|---------------------------------------------------------33-3-3----------|
                                                                            x8
e|-------------------------------------------------------------------------|
B|-------------------------------------------------------------------------|
G|-------------------------------------------------------------------------|
D|---00-0-0-4-4-5-4-----------4-4-5-4-----------4-4-5-4-----------5-5-4-0--|
A|---------------------00-0-0------------22-2-2----------------------------|
E|---------------------------------------------------------33-3-3----------|

Chorus part 3:
e|-----5-----5-----------------------------5-----5----------------7~---------|
B|-5h7---5h7---5~----------------------5h7---5h7---5~-------------5~---------|
G|---------------------------------------------------------------------------|
D|---------------------------------------------------------------------------|
A|---------------------------------------------------------------------------|
E|---------------------------------------------------------------------------|
    "She leads a lone--------------------------------------------------------|ly life..."
                       "finding her way     back home         at night"

- Cheers, Frazer.

| /  slide up
| \  slide down
| h  hammer-on
| p  pull-off
| ~  vibrato
| +  harmonic
| x  Mute note
===============================================================================





Comments


Popular Daniel Wesley tabs & chords
Diggy Chords
Johnny Intro Tabs
Monday Tabs
Nyquil Tabs
Ooo Oh Tabs
Pilgrimige Tabs
Time For Leaving Tabs
You Ain't Shit Tabs
Diggy Ukulele
Johnny Ukulele


Song lyrics



↑ Back to top | Tablatures and chords are parodies/interpretations of the original songs. You may use it for private study, scholarship, research or language learning purposes only
© 2014 AZChords.com Contact us | Privacy policy | DMCA | Add/correct tabs | Request tabs | Top 50 tabs