» » »

Bad Day Tabs (ver.1)

Artists:  A B C D E F G H I J K L M N O P Q R S T U V W X Y Z # 

Bad Day Tabs (ver.1)

Daniel Powter
Rating:
2/5 (2 votes)

Hard to play? Try these video lessons and learn fast.
                (Intro)
-------------------------------------------------------------------------------
                             BAD DAY (Intro) - Daniel Powter
-------------------------------------------------------------------------------

Tuning: Standard
Capo: 3rd fret

e|-3--3--3--3--3--3--3--3--0-1-|
B|-1--1--1--1--1--1--1--1--1-1-|
G|-2--2--2--2--2--2--2--2--2-2-|
D|-----------------------------|
A|-----------------------------|
E|-----------------------------|

Play it once for the intro and once more for the beginning of the verse.

Since I can't figure out the rest of the song, I don't know if having the capo on 3 puts 
in the wrong key.

So if you want to play it sans capo or with a capo on a different fret, here are the 
notes:

Tuning: Standard
Capo: none

e|-6--6--6--6--6--6--6--6--3-4-|
B|-4--4--4--4--4--4--4--4--4-4-|
G|-5--5--5--5--5--5--5--5--5-5-|
D|-----------------------------|
A|-----------------------------|
E|-----------------------------|

[ I know re-writing it is unnecessary, but I'm visual and it helps me to see it 
if that is how I'm playing it. And I can't be the only one. :) ]

Lastly, if you are putting up a new tab and want to use this intro, just put somewhere: 


| /  slide up
| \  slide down
| h  hammer-on
| p  pull-off
| ~  vibrato
| +  harmonic
| x  Mute note
===============================================================================
            
Hard to play? Try these video lessons and learn fast. | Correct




comments powered by Disqus
↑ Back to top | Tablatures and chords are parodies/interpretations of the original songs. You may use it for private study, scholarship, research or language learning purposes only