» » »

Daniel Lioneye, We Gonna Rocking Tonight Tabs (ver.1)

Artists:  A B C D E F G H I J K L M N O P Q R S T U V W X Y Z # 

We Gonna Rocking Tonight Tabs (ver.1)

Daniel Lioneye Tabs
Rating:
4/5 (1 vote)
Hard to play? Try these video lessons and learn fast.
                -------------------------------------------------------------------------------
                             SONG NAME - Band Name



Tuning: Standard EADGBe

I've put the difficulty as intermediate because of the improvisational skills needed to 
the solo to Linde's standard =]

Intro & Verse:

Guitar 1:

e|-------------------------------|
B|-------------------------------|
G|-2-x-2-------------------------|
D|-2-x-2--------5----------------|
A|-0-x-0----5-7---7-5-7-5--------|
E|------------------------8------|

Guitar 2:

e|----------------------------------|
B|----------------------------------|
G|--14-14--------12-----------------|
D|---------12-14----14-12-14-12-----|
A|------------------------------15--|
E|----------------------------------|

Verse (Come on baby, rockin' and a rolin')

e|---|
B|---|
G|-2-|
D|-2-|
A|-0-|
E|---|

Verse part 2: (Come on baby, rockin' and a rollin')

e|-----------------------------------------------------------------------|
B|-----------------------------------------------------------------------|
G|-----------------------------------------------------------------------|
D|-5--5--5-5-5-2--2-2-2-2-2-2-5--5--5-5-5-5-7--7-7-7-7-7-7-7-7-7-7-7-7-7-|
A|-5--5--5-5-5-2--2-2-2-2-2-2-5--5--5-5-5-5-7--7-7-7-7-7-7-7-7-7-7-7-7-7-|
E|-3--3--3-3-3-0--0-0-0-0-0-0-3--3--3-3-3-3-5--5-5-5-5-5-5-5-5-5-5-5-5-5-|

Chorus (You and me baby...)

Both Guitars
                                   At the end of the chorus, play this:
e|--------------------------------|---------------------|
B|--------------------------------|---------------------|
G|--------------5--5-5-5-7-7-7-7--|-9-9-9-9-9-9-9-9-9\--|
D|-7--7--7-7-7--5--5-5-5-7-7-7-7--|-9-9-9-9-9-9-9-9-9\--|
A|-7--7--7-7-7--3--3-3-3-5-5-5-5--|-7-7-7-7-7-7-7-7-7\--|
E|-5--5--5-5-5--------------------|---------------------|

For the solo, just improvise in the E blues scale:

e|---------------------------------------12-15--|
B|---------------------------------12-15--------|
G|------------------------12-14-15--------------|
D|-----------------12-14------------------------|
A|-------12-13-14-------------------------------|
E|-12-15----------------------------------------|

Or

e|-------------------------0-3-------------------------------------------------------|
B|---------------------0-3-----------------------------------------------------------|
G|---------------0-2-3---------------------------------------------------------------|
D|-----------0-2---------------------------------------------------------------------|
A|-----0-1-2-------------------------------------------------------------------------|
E|-0-3-------------------------------------------------------------------------------|

and flangers going. So there isn't really anything else to tab ;)

Enjoy!


| /  slide up
| \  slide down
| h  hammer-on
| p  pull-off
| ~  vibrato
| +  harmonic
| x  Mute note
===============================================================================
            

comments powered by Disqus
↑ Back to top | Daniel Lioneye Tabs for We Gonna Rocking Tonight. Lyrics for acoustic guitar and electric guitar. Tablatures and chords are parodies/interpretations of the original songs. You may use it for private study, scholarship, research or language learning purposes only