>
 >
Eldorado Baby

Eldorado Baby Guitar Tabs

Daniel Lioneye - Eldorado Baby chords, tabs, tablatures, lyrics

Guitar lessons | Add/correct | Request | Top 50 tabs Artists:  A B C D E F G H I J K L M N O P Q R S T U V W X Y Z 0-9

Eldorado Baby Guitar Tabs – Daniel Lioneye

CD, Sheet music, Poster

Do you like Eldorado Baby? Share with your friends now
TabsTabs v2Tabs v3
-------------------------------------------------------------------------------
-------------------------------------------------------------------------------

Tuning: Standard

Standard 12-bar blues pattern in Eminor. 
Played with a slight "swing" and allow the open high E strings to ring out in the little lick

Riff A - E position
 E|-0---0--0-0-------------------------|
 B|-3/5-5--3-0-------------------------|
 G|--------------2-0-------------------|  
 D|------------------------------------|
 A|-------------------------22-22-22-22|
 E|-------------------------00-30-00-30|              

Riff B - A position
 E|-0---0--0-0-------------------------|
 B|-3/5-5--3-0-------------------------|
 G|--------------2-0-------------------|  
 D|-------------------------22-22-22-22|
 A|-------------------------00-30-00-30|
 E|------------------------------------|

Riff C - B position
 E|-0---0--0-0-------------------------|
 B|-3/5-5--3-0-------------------------|
 G|--------------2-0-------------------|  
 D|-------------------------44-44-44-44|
 A|-------------------------22-52-22-52|
 E|------------------------------------|

Pattern:-
A x2
B x1
A x1
C x1
A x1

Example with lyrics (may be slightly innacurate, but they were hard to find)

Intro:- play through the above pattern once, note that this pattern never changes 
throughout the song

Riff A         Riff A
Eldorado baby, got my mojo baby
Riff B                 Riff A
You can call me Danny, step in my Caddy
Riff C
A sguigely wigely snake-a-didley
Riff A                      
Seven boogie forty woogie blues

Repeat

Colorado baby, dope-a-rama maybe
Fortysix Cincinatti, sweet little kitty katty
An Alabama mama shake-a-rama
Groovy movie blues

Dollars comin' baby, dollars going baby
A stetson rock'n roller, a hillybilly brother
A shakin' rolla dolla honey sguigely gigley
Tsugu way blues

I gotma rollin' baby, I gotta do it baby
I shocked the world baby, by rock'n rolla baby
Cincinattie, Tallahasee
Bourbon drinkin' redneck blues

L.A. voodoo baby, got me under spell baby
Black magic baby, devil's witch baby
A voodoo doll, boogaloo
Jiggy wiggy hoolabaloo blues

Old pair of boots, dope-a-rama blues
I gotta be de fool, blues in the roots
A swampy gamblin Mississippi
Crocodile moonshine blues

Devil on my track, can't turn my back
Even if I hit the sack, oh whatta drag
Crossroads and bad deal
Hellhound a train come blues

Oh lord what gonna do, my times ran out
With you
Alligators comin too, it seems my time is due
A doomed rock'n roller holla
Rollin down the highway blues

END

************************************

| /   slide up
| \   slide down
| h   hammer-on
| p   pull-off
| ~   vibrato
| +   harmonic
| x   Mute note
| b   Bend
| pb  Pre-bend
| br  Bend release
| pbr Pre-bend release
| brb Bend release bend

************************************





Comments


Popular Daniel Lioneye tabs & chords
Dope Danny Tabs
Dope Danny 1 Tabs
Eldorado Baby 2 Tabs
International P-Lover Tabs
King Of Rock And Roll Tabs
King Of Rock And Roll 1 Tabs
Never Been In Love Tabs
The King Of Rock & Roll Tabs
The King Of Rock & Roll 1 Tabs
We Gonna Rocking Tonight Tabs


Song lyrics



↑ Back to top | Tablatures and chords are parodies/interpretations of the original songs. You may use it for private study, scholarship, research or language learning purposes only
© 2014 AZChords.com Contact us | Privacy policy | DMCA | Add/correct tabs | Request tabs | Top 50 tabs