» » »

Daniel Lioneye, Dope Danny Bass tabs (ver.1)

Artists:  A B C D E F G H I J K L M N O P Q R S T U V W X Y Z # 

Dope Danny Bass tabs (ver.1)

Daniel Lioneye Tabs
 Rating:
4/5 (4 votes)
Dope Danny lessons Tabs too difficult? Try these video lessons and learn fast
1
                ----------------------------------------------------------------------------
----------------------------------------------------------------------------


Tuning: standard

You Dont play anything during the intro until the Guitar Comes in too

Verse Riff:
G|--------------------------------------------------------------------------|
D|--------------------------------------------------------------------------|
A|-------1p0---0-------------1p0---0~---------------------------------------|
E|-00-3-0----3---3~---00-3-0-----3------------------------------------------|


The Verse Riff Switch-Up:
G|--------------------------------------------------------------------------|
D|--------1p0---0-------------1p0---0~--------------------------------------|
A|-00-3-0-----3---3~---00-3-0-----3-----------------------------------------|
E|--------------------------------------------------------------------------|


Prechorus Riff:
G|--------------------------------------------------------------------------|
D|--------------------------------------------------------------------------|
A|--------------------------------------------------------------------------|
E|-777777777777777777777777777-10101010010101010----------------------------|
  "and thats why they call me..   Dope Danny...."


Chorus Riff:
G|--------------------------------------------------------------------------|
D|--------------------------------------------------------------------------|
A|--------------------------------------------------------------------------|
E|-22-------11--------00---------3------5-----------------------------------|
     " Dope    Danny      Ex - plo -  sion!"


Now during the solo Mige basically sticks to the Verse Riff but does branch off and does 
basic scales, i dont know EXACTLY what he does for those You'll have to improvise

Final Prechorus Riff:
G|--------------------------------------------------------------------------|
D|--------------------------------------------------------------------------|
A|--------------------------------------------------------------------------|
E|-777777777777777777777777777-1010101010101010101010101010-----------------|
  "and thats why they call me..
G|--------------------------------------------------------------------------|
D|--------------------------------------------------------------------------|
A|--------------------------------------------------------------------------|
E|-1212121212121212121212121212-1414141414141414141414141414----------------|
 ..and thats why they call me....             ...Dope Danny"


The outro is the same as the chorus just don't pause, keep hitting the notes steady

There you go!


| /  slide up
| \  slide down
| h  hammer-on
| p  pull-off
| ~  vibrato
| +  harmonic
| x  Mute note
============================================================================
            
Submit corrections

comments powered by Disqus
↑ Back to top | Daniel Lioneye Bass for Dope Danny. Lyrics for acoustic guitar and electric guitar. 1 Tablatures and chords are parodies/interpretations of the original songs. You may use it for private study, scholarship, research or language learning purposes only