>
 >
Hide Your Tears

Hide Your Tears Guitar Tabs

Daniel Licht - Hide Your Tears chords, tabs, tablatures, lyrics

Guitar lessons | Add/correct | Request | Top 50 tabs Artists:  A B C D E F G H I J K L M N O P Q R S T U V W X Y Z 0-9

Hide Your Tears Guitar Tabs – Daniel Licht

CD, Sheet music, Poster

Do you like Hide Your Tears? Share with your friends now
TabsTabs v2
Hide Your Tears (A.K.A. Hidden) - From "Dexter"

Daniel Licht

so I don't spam it)

If the font changes, it was originally in courier new.

I couldn't find a tab for this song so I spent a couple hours listening and
put this together.  I know it isn't perfect, but it sounds close.  I really
wish they sold a Dexter Soundtrack Guitar Book.  I would spend money to
learn these songs (and I wouldn't have to spend an afternoon getting it
only 98% right).

Feel free to take and change any part of this and repost it.  I don't want
or need the credit, I just want to play the song.

Sounds best with 3 separate guitars playing each part (Riffs, Chords, Lead).

Standard tuning.

Sorry, I did not include the rhythm.  It has a very easy and catchy rhythm
so I hope you can get it anyway.

Riff A		              		Riff B  	        Transition
e|---12--12--12--12~~	e|---12--12--12---		e|---12--12--12--12--12---12-|
B|-----12--12--------	B|-----12--12-----		B|-----12--12------12--12----|
G|-9-----------9-----	G|-9-----------9~~		G|-9-----------9-------------|
D|-------------------	D|----------------		D|---------------------------|
A|-------------------	A|----------------		A|---------------------------|
E|-------------------	E|----------------		E|---------------------------|

Riff A can be played strumming six fast strums with two longer.
Riff B can be played strumming six fast strums with one longer.
Transition can be played twelve fast strums.

Riff A 5x       	       Transition   Riff B 2x                Riff A         Transition
e|----------------------------------------------------------------------------------------------|
B|----------------------------------------------------------------------------------------------|
G|--------9---12--11--12--9---4---9---7---5---9--9--12/11--11--12/14--12--14--12--11-11/12/11/9-|
D|----------------------------------------------------------------------------------------------|
A|--------7---10--9---10--7---2---7---5---3---7--7--10/9---9---10/12--10--12--10--9--9-/10/9-/7-|
E|----------------------------------------------------------------------------------------------|

Chords 2x; with Riffs and Transitions strummed second time.

   Em          G           A           Em

e|-0-----------3-----------0-----------0-----------|
B|-0-----------3-----------2-----------0-----------|
G|-0-----------0-----------2-----------0-----------|
D|-2-----------0-----------2-----------2-----------|
A|-2-----------2-------0-2-0-------0-2-2-----------|
E|-0-------0-2-3-----------------------0-----------|	2x

Continue with Chords (once through per line) also strum the Riffs and Transition throughout.

e|-----------------------------------------------------------------|
B|-0--3--5--0--3--7--8--7h8p7--5--3--3h5p3--2h3p2--2h3p2p0--2~~~~~-|
G|-----------------------------------------------------------------|
D|-----------------------------------------------------------------|
A|-----------------------------------------------------------------|
E|-----------------------------------------------------------------|

e|--------------------------------------------------------|
B|-0--3--5--0--3--7--8--7h8p7--5--7--8--10--8-8--7--7h8p5-|
G|--------------------------------------------------------|
D|--------------------------------------------------------|
A|--------------------------------------------------------|
E|--------------------------------------------------------|

Chords 1x; with Riffs and Transition strummed.

Orchestration (Outro):

   ~Em                G    F#m                  A      G
(Ringing from chord)

e|-----------------------------------------------------------|
B|-----------------------------------------------------------|
G|-----------------------------------------------------------|
D|--------------------5----4--------------------7------5-----|
A|-----------------------------------------------------------|
E|-----------------------------------------------------------|

Hope you enjoy.





Comments


Popular Daniel Licht tabs & chords
Astors Birthady Party Tabs
Astors Birthday Party Intro Tabs
Hide Your Tears 1 Tabs
Party Tabs
Party 2 Tabs
Photos 1 Tabs
Photos 3 Tabs
The End Tabs
Wink Tabs
Wink 1 Tabs


Song lyrics



↑ Back to top | Tablatures and chords are parodies/interpretations of the original songs. You may use it for private study, scholarship, research or language learning purposes only
© 2014 AZChords.com Contact us | Privacy policy | DMCA | Add/correct tabs | Request tabs | Top 50 tabs