>
 >
Epilogue Bloodroom

Epilogue Bloodroom Guitar Tabs

Daniel Licht - Epilogue Bloodroom chords, tabs, tablatures, lyrics

Guitar lessons | Add/correct | Request | Top 50 tabs Artists:  A B C D E F G H I J K L M N O P Q R S T U V W X Y Z 0-9

Epilogue Bloodroom Guitar Tabs – Daniel Licht

CD, Sheet music, Poster

Do you like Epilogue Bloodroom? Share with your friends now
Tabs
Dexter Epilogue (Drop D tuning) It?s not perfect and that?s ok!


(Repeat twice)
-|----------8--11--10-8-------1--------------------------------|
-|--------------------8----------4/6---------------------------|
-|----------8--12--10-8-------1--------------------------------|
-|-------------------------------------------------------------|
-|-----10-------------------3----------------------------------|
-|--10--------------------3------------------------------------|


-|------1--4--3--1---------------------------------------------|
-|-------------------------4----4/8----6----4------------------|
-|------1--5--3--1------------0-----0----0-----0---------------|
-|----------------------1--------------------------------------|
-|---3----------------1----------------------------------------|
-|-3----------------1------------------------------------------|

-|-------------------------------------------------------------|
-|--------3-----3/6-----4-----3---3h4p3-------------------------|
-|-----------0-------0-----0-----------5--3-3h5----------------|
-|-----5-------------------------------------------------------|
-|---5---------------------------------------------------------|
-|-5-----------------------------------------------------------|
(Repeat Twice)
-|-------------------------------------------------------------|
-|-------------------------------------------------------------|
-|-------------------------------------------------------------|
-|-------------------------------------------------------------|
-|---3-3---3-3--3-3----3---------------------------------------|
-|-5------5----5-----1-----------------------------------------|

-|-------------------------------------------------------------|
-|--4---8---6--------6-6h8p6---4---------4-4h6p4--3----------3-|
-|---------------5-------------5-----5-------------------0-----|
-|--5---8---7---7--7-----------5----5--5----------3----3---3---|
-|--6-------8--8-------------------6-----------------5---------|
-|-------------------------------------------------------------|

-|-------------------------------------------------------------|
-|--3--3------------4---4--3---4--3--1--1---1---1---12--13-----|
-|--2--4---5----5-------5------5-----------0-------------------|
-|--3--3---5---5--5-----5--3---5--3--1--1-1---1-----12--13-----|
-|---------6--6------------------------------------------------|
-|-------------------------------------------------------------|




(Repeat Twice)
-|---6-----8--5-------5--8--10--11---------------11-------------|
-|---8-----8--6----6-----8--10--13--------13--------------------|
-|---8-----8--5---5--5---8--10--12-----12-----12----------------|
-|---------------7------------------13--------------------------|
-|--------------------------------------------------------------|
-|--------------------------------------------------------------|

-|--11--10--------------10--11--10--8---------8--8--7-----7------|
-|--13--10--------10--------13--10--8------8-----8--8---8--------|
-|--12--10-----10----10-----12--10--8----8---8---8--7--7-7-------|
-|----------12-------------------------10-------------9----------|
-|---------------------------------------------------------------|
-|---------------------------------------------------------------|

-|-5---7-8-------------------------------------------------------|
-|-6---8-8-------------------------------------------------------|
-|-5---7-8----FIN------------------------------------------------|
-|---------------------------------------------------------------|
-|---------------------------------------------------------------|
-|---------------------------------------------------------------|





Comments


Popular Daniel Licht tabs & chords
Astors Birthady Party Tabs
Astors Birthday Party Intro Tabs
Hide Your Tears 1 Tabs
Peaceful Tabs
Photo Albums Tabs
Photos 1 Tabs
Photos 3 Tabs
The End Tabs
Wink Tabs
Wink 1 Tabs


Song lyrics



↑ Back to top | Tablatures and chords are parodies/interpretations of the original songs. You may use it for private study, scholarship, research or language learning purposes only
© 2014 AZChords.com Contact us | Privacy policy | DMCA | Add/correct tabs | Request tabs | Top 50 tabs