>
 >
Sonho Dourado

Sonho Dourado Guitar Tabs

Daniel Lanois - Sonho Dourado chords, tabs, tablatures, lyrics

Guitar lessons | Add/correct | Request | Top 50 tabs Artists:  A B C D E F G H I J K L M N O P Q R S T U V W X Y Z 0-9

Sonho Dourado Guitar Tabs – Daniel Lanois

CD, Sheet music, Poster

Do you like Sonho Dourado? Share with your friends now
TabsTabs v2
-------------------------------------------------------------------------------
-------------------------------------------------------------------------------

I just heard this song for the first time tonight, and thought it was amazing, so I 
the next 3 hrs tabbing it. This sounds pretty close, but even if it's not, it's the first 
I could find of the song.

Tuning:Standard (EADGBe)

e|---------------------------7-----------------------------------------------|
B|---------------------------7--------------------------------------9-11-----|
G|---------------------13----8----------------------11----11------9----------|
D|--9/11/13--11-9------------9--9-11-11h13p11-9-----11h13-11-11-9------------|
A|----------------9h11----9--9------------------9----------------------------|
E|---------------------------7-----------------------------------------------|

e|---------------------------------------------------------------------------|
B|-------11-12-11-9----------------------------------------------------------|
G|----11------------9-11-----------------------------9-11--------------------|
D|--9--------------------13-11-9----------9-----9-13------13-11-11h13p11-9---|
A|--------------------------------------------7------------------------------|
E|-------------------------------9h11p9-7---7--------------------------------|

e|---------------------------------------------------------------------------|
B|---------------------------------------------9-11-12---9-------------------|
G|-------------------------------------15----9---------------9-11------------|
D|-------------------------------16-16-----9-----------9---9-------13-11-9---|
A|--11-9-7h9p7-------------------16------------------------------------------|
E|-------------11-11/14/19-16-19-14------------------------------------------|

e|---------------------------------------------------------------------------|
B|---------------------------------------------------------------------------|
G|--------------8-8-8-8-8\6---8-6h8p6-9---8h9-11--11--9h11p9-----------------|
D|--11-13-11-9--9-9-9-9-----9---------9-9-9-------x---9-------13-9-11--------|
A|--------------------------------------x---------9--------------------------|
E|--------------------------------------7------------------------------------|

e|---------------------------------------------------------------------------|
B|------------------------9-11------11-12-11h12-11-9-------------------------|
G|--11----11-11----11---9--------11---------------------11-------------------|
D|--11h13-11-11h13-11-9--------9---------------------13----13-11-9-11-9-13-9-|
A|---------------------------------------------------------------------------|
E|---------------------------------------------------------------------------|

e|---------------------------------------------------------------------------|
B|---------------------------------------------------------------------------|
G|--8-8p6-8-8p6---6h8-9h11-9--------9-11------------------------11----11-----|
D|--9-9---9-9---9-----9----9--9--13------13-11-9h11p9-8-9-11-11-11h13-11-9-8-|
A|---------------------------------------------------------------------------|
E|---------------------------------------------------------------------------|

e|---------------------------------------------------------------------------|
B|---------------------------14/16-16/17-------------------------------------|
G|----------13/15-----15-16----------------9h11------------------------------|
D|-----------------------------------------9-----13-11-9-11-11-11-9----------|
A|-7-9/11---------13-------------------------------------x--x--x--x----------|
E|-------------------------------------------------------9--9--9--7----------|

e|---------------------------------------------------------------------------|
B|--16-16-16-16-14-14-16-----------------------------------------------------|
G|--16-16-16-16-16-16-16-------8h9h11-9h11-11/16-15--11----11----11----------|
D|-----------------------2--9------------------------11h13-11h13-11h13-------|
A|-----------------------2--9------------------------------------------------|
E|-----------------------0--7------------------------------------------------|

e|---------------------------------------------------------------------------|
B|---------------------------------------------------------------------------|
G|---------------------------------------11------------------11----11--------|
D|--11p9--9h11p9--9-----9----9-----------11h13-11-9-8-9--11--11h13-11--------|
A|----------------9h11--9h11-9-9h11p9----------------------------------------|
E|------------------------------------7--------------------------------------|

e|---------------------------------------------------------------------------|
B|------9-11-------11-12-12p11-9---------------------------------------------|
G|----9---------11-----------------9-11--------------------------------------|
D|--9--------9-------------------9------13-11-9---9-11-9-9-8----13-----------|
A|----------------------------------------------9------------11--------------|
E|---------------------------------------------------------------------------|

e|---------------------------------------------------------------------------|
B|-------9-11--------11--14b16r14-12-11-9----11-12------12-11------12-16p14--|
G|-----9---------11------------------------9-------11-9---------11-----------|
D|---9--------9-----------------------------------------------9--------------|
A|-7-------------------------------------------------------------------------|
E|---------------------------------------------------------------------------|

e|---------------------------------------------------------------------------|
B|---------------------------------------------------------------------------|
G|--13-11----------------11-11-11-11------------------11-11----11------------|
D|---------13--11\9-11-9-13-13-14-14-13-11\9-----11-9-13-13h14-13------------|
A|-------------------------------------------9-9-----------------------------|
E|---------------------------------------------------------------------------|





Comments


Popular Daniel Lanois tabs & chords
Jolie Louise Chords
Rocky World Chords
Shine Chords
The Messenger Chords
Under A Stormy Sky Chords
Sonho Dourado 1 Tabs
Jolie Louise Ukulele
Rocky World Ukulele
Shine Ukulele
The Messenger Ukulele


Song lyrics



↑ Back to top | Tablatures and chords are parodies/interpretations of the original songs. You may use it for private study, scholarship, research or language learning purposes only
© 2014 AZChords.com Contact us | Privacy policy | DMCA | Add/correct tabs | Request tabs | Top 50 tabs