» » »

Daniel Lanois, Falling At Your Feet Tabs (ver.1)

Artists:  A B C D E F G H I J K L M N O P Q R S T U V W X Y Z # 

Falling At Your Feet Tabs (ver.1)

Daniel Lanois Tabs
 Rating:
4.2/5 (5 votes)
Falling At Your Feet lessons Tabs too difficult? Try these video lessons and learn fast
1
                First tab here, so please be gentle. I love u2 and Daniel's work especially. Here is 
at your feet from million dollar hotel and shine, Daniel's solo album.


This is the guitar tab throughout the song

----------------------------------------------------------------------------
----------------------------------------------------------------------------

Tuning: Standard Acoustic or electric  CAPO ON 4TH FRET

ASSUME A STANDARD D CHORD, ALL THE NOTES ARE RELATIVE TO THE CAPO

E|--------1---------1------------1-------1h---1---------------------------------|
B|-----2-----2---------2-----2-------2-----------2------------------------------|
G|--3-----------3---------3--------------------------3--------------------------|
D|------------------------------------------------------------------------------|
A|------------------------------------------------------------------------------|
E|------------------------------------------------------------------------------|

THIS IS THE SONG WITH AN EXTRA PIECE WHERE YOU TAKE YOUR FINGERS OFF FOR THE END OF THE 
AND DO THIS


E|-0-------0--------0-------0---------------------------------------------------|
B|-----0-------0--------0-------0-----------------------------------------------|
G|------------------------------------------------------------------------------|
D|------------------------------------------------------------------------------|
A|------------------------------------------------------------------------------|
E|------------------------------------------------------------------------------|


| /  slide up
| \  slide down
| h  hammer-on
| p  pull-off
| ~  vibrato
| +  harmonic
| x  Mute note
===============================================================================
            
Submit corrections

comments powered by Disqus
↑ Back to top | Daniel Lanois Tabs for Falling At Your Feet. Lyrics for acoustic guitar and electric guitar. 1 Tablatures and chords are parodies/interpretations of the original songs. You may use it for private study, scholarship, research or language learning purposes only