» » »

Daniel Bedingfield, Wrap My Words Around You Chords (ver.3)

Artists:  A B C D E F G H I J K L M N O P Q R S T U V W X Y Z # 

Wrap My Words Around You Chords (ver.3)

Daniel Bedingfield Tabs
Rating:
4/5 (2 votes)
Hard to play? Try these video lessons and learn fast.
                Everyone has got this wrong so far. If you really listen to the song it is really like this:

Intro + Verse:
      C#m        B         F#          F#
e|-------4---------2---------2----------2|
B|-------5---------4---------2----------2|
G|-------6---------4---------3----------3|   Repeat 4 Times until Bridge
D|-------6---------4---------4----------4|   part!
A|---4---4-----2---2---------4----------4|
E|-----------------------2---2------2---2|

Bridge Part:

    C#m        B             A          E
e|-------4---------2---------5----------0|
B|-------5---------4---------5----------0|
G|-------6---------4---------6----------1|
D|-------6---------4---------7----------2|
A|---4---4-----2---2---------7----------2|
E|-----------------------5---5------0---0|

        B         F#         C#m       C#m
e|-------2---------2---------4----------4|
B|-------3---------2---------5----------5|
G|-------4---------3---------6----------6|
D|-------4---------4---------6----------6|
A|---2---4---------4-----4---4------4---4|
E|-------------2---2---------------------|

        B         F#         C#m       C#m
e|-------2---------2---------4----------4|
B|-------3---------2---------5----------5|
G|-------4---------3---------6----------6|
D|-------4---------4---------6----------6|
A|---2---4---------4-----4---4------4---4|
E|-------------2---2---------------------|

Then Repeat this whole thing twice but instead of 4 times on the verse, only do 2. Then 
into the chorus!

Chorus:
     C#m        B         F#          F#
e|-------4---------2---------2----------0|
B|-------5---------4---------2----------0|
G|-------6---------4---------3----------1|
D|-------6---------4---------4----------2|
A|---4---4-----2---2---------4----------2|
E|-----------------------2---2------0---0|

Thats the tab, the order is:

Intro + Verse
Bridge
Verse
Bridge
Chorus
Verse
Bridge
Verse
Bridge
Chorus
Verse - Fades out

RATE!
Baz!
            

comments powered by Disqus
↑ Back to top | Daniel Bedingfield Chords for Wrap My Words Around You. Lyrics for acoustic guitar and electric guitar. Tablatures and chords are parodies/interpretations of the original songs. You may use it for private study, scholarship, research or language learning purposes only