» » »

If You're Not The One Tabs (ver.2)

Artists:  A B C D E F G H I J K L M N O P Q R S T U V W X Y Z # 

If You're Not The One Tabs (ver.2)

Daniel Bedingfield
Rating:
0/5 (0 votes)

Hard to play? Try these video lessons and learn fast.
                
Gtr I (E A D G B E) - 'Untitled'

 4/4
  Gtr I - Intro
  E E E E E E E E E E E E E E E  E E E E E E E E E E E E E E
|---------------------------------------------------------------|
|---------------------------------------------------------------|
|---3-2-----3-2-----0-2-3-3-5-7----3-2-----3-5-7-8-5-7-3--------|
|-0-----3-0-----3-0--------------0-----3-0---------------3-5----|
|---------------------------------------------------------------|
|---------------------------------------------------------------|


  E E E E E E E E E E E E E E E  E E E E E E E E E E E E E E E
|-----------------------------------------------------------------|
|-----------------------------------------------------------------|
|---3-2-----3-2-----0-2-3-3-5-7----3-2-----3-5-7-8-5-3-3-7-7-8----|
|-0-----3-0-----3-0--------------0-----3-0------------------------|
|-----------------------------------------------------------------|
|-----------------------------------------------------------------|


  E E E E E E E E E E E E E E E E E E E E E E E E E E E E E E E E E
|---------------------------------------------------------------------|
|---------------------------------------3---3-3-4-3---6-4-3-----------|
|-2-2-2-2-0---0-3-5-0-2-2-2-0-----0-3-5---5---------3-------0-2-3-7---|
|-----------3-----------------3---------------------------------------|
|-------------------------------3-------------------------------------|
|---------------------------------------------------------------------|


  E E E E E E E E  E E E E  E E E E E  E E E E E E E E E E E E E E E E
|-----------------------------------------------------------------------|
|------------------------------------------------------6-4-3-4-6-4-3-4--|
|-8-8-8-8-8-7-7-8-10-8-7-8-10-8-7-8-7--7-7-7-7-7-5-5-3------------------|
|-----------------------------------------------------------------------|
|-----------------------------------------------------------------------|
|-----------------------------------------------------------------------|

 after playing this bar (bar 5) and ending on fret 10 repeat the song
 Be sure to end the second repeat on the last fret of the 3rd bar
then continue on from the 4th bar all the way to the 14th
  E E E E E E E E E  E  E  E  E
|---3-5-6-5-3-1-6-8-10-10-11-10----|
|-3--------------------------------|
|----------------------------------|
|----------------------------------|
|----------------------------------|
|----------------------------------|


  E E E E E E E E   E E E E E E E E
|-----------------|-----------------|
|-------3---3-3-4-|-3---6-4-3-------|
|-0-3-5---5-------|---3-------0-2-3-|
|-----------------|-----------------|
|-----------------|-----------------|
|-----------------|-----------------|


   E E E E E E E E   E E E E E E E E   E  E
|------------------|-----------------|-------|
|----------3---3-3-|-4-3---6-4-3-----|-------|
|-10-0-3-5---5-----|-----3-------0-2-|-3-10--|
|------------------|-----------------|-------|
|------------------|-----------------|-------|
|------------------|-----------------|-------|


  E E E E  E E E E       E E E E E E E E
|----------------------|-----------------|
|----------------------|-----------------|
|----------------------|-8-8-8-8-8-7-7-8-|
|-7-5-8-7-10-8-8-8-----|-----------------|
|----------------------|-----------------|
|----------------------|-----------------|


   E E E E  E E E E   E E E E E E E E   E E E E E E E E   E
|-------------------|-----------------|-----------------|---|
|-------------------|-----------------|---6-4-3-4-6-4-3-|-4-|
|-10-8-7-8-10-8-7-8-|-7-7-7-7-7-7-5-5-|-3---------------|---|
|-------------------|-----------------|-----------------|---|
|-------------------|-----------------|-----------------|---|
|-------------------|-----------------|-----------------|---|


  E E E E E E E E
|---3-5-6-5-3-1-6-|
|-3---------------|
|-----------------|
|-----------------|
|-----------------|
|-----------------|


  E  E  E  E  E  E E  E E  E  E  E  E E E E E E  E  E  E  E E E  E
|-8-10-10-11-10----------------------------------------------------|
|------------------------------------------------------------------|
|------------------------------------------------------------------|
|----------------7-8-10-8-12-12-12-12-8-7-7-7-8-10-13-12-12-7-8-10-|
|------------------------------------------------------------------|
|------------------------------------------------------------------|


  E  E  E  E  E E E E E E  E  E  E  E  E E E E E E E E
|---------------------------------------------------------|
|---------------------------------------------------------|
|--------------------------------------------3-5-3-2-3----|
|-8-12-12-12-12-8-7-7-7-8-10-13-12-12-12-3-5--------------|
|---------------------------------------------------------|
|---------------------------------------------------------|


  E E E E E E E E    E E E E  E E E E   E E E E E E E E   E E E E E E E E   E
|-----------------|-------------------|-----------------|-----------------|---|
|-----------------|-------------------|-----------------|---6-4-3-4-6-4-3-|-4-|
|-8-8-8-8-8-7-7-8-|-10-8-7-8-10-8-7-8-|-7-7-7-7-7-7-5-5-|-3---------------|---|
|-----------------|-------------------|-----------------|-----------------|---|
|-----------------|-------------------|-----------------|-----------------|---|
|-----------------|-------------------|-----------------|-----------------|---|

Ending
  E E E E E E E E   E  E  E  E  E
|---3-5-6-5-3-1-6-|-8-10-10-11-10----|
|-3---------------|------------------|
|-----------------|------------------|
|-----------------|------------------|
|-----------------|------------------|
|-----------------|------------------|
            
Hard to play? Try these video lessons and learn fast. | Correct




comments powered by Disqus
↑ Back to top | Tablatures and chords are parodies/interpretations of the original songs. You may use it for private study, scholarship, research or language learning purposes only