» » »

Daniel Adams-ray, Gubben I Ladan Tabs (ver.1)

Artists:  A B C D E F G H I J K L M N O P Q R S T U V W X Y Z # 

Gubben I Ladan Tabs (ver.1)

Daniel Adams-ray Tabs
Rating:
2/5 (1 vote)
Gubben I Ladan lessons Tabs too difficult? Try these video lessons and learn fast
                E|---------------------------------------------------------------|
B|---------------------------------------------------------------|
G|--------8---------------3------------------8---------------3---|
D|--------8---------------1------------------8---------------1---|
A|----6----------------------------------6-----------------------|
E|----------6----------3------1----------------6--------3-------1|

-----------------------------1----------------------------------------|
----------------------------------------------------------------------|
---------8---------------3--------------------------------------------|
---------8---------------1--------------8-8---------------------------|
-----6----------------------------------6-6-----8-8----5-5----3-3-----|
-----------6---------3-----1--------------------6-6----3-3----1-1-----|

REF
----------------------------------------------------------------------|
----------------------------------------------------------------------|
----------------------------------------------------------------------|
-----8---8--88--------------------------------------------------------|
-----6---6--66-------8---8--88-------5---5--55-------3---3--33--------|
---------------------6---6--66-------3---3--33-------1---1--11--------|

----------------------------------------------------------------------|
----------------------------------------------------------------------|
----------------------------------------------------------------------|
-----8---8--88--------------------------------------------------------|
-----6---6--66-------8---8--88-------5---5--55-------3---3--33--------|
---------------------6---6--66-------3---3--33-------1---1--11--------|

Orkar fan inte mer. Ska spela CS.
Aja.. Resten far ni val tanka ut sjalva :)


fjaell
            
Submit corrections

comments powered by Disqus
↑ Back to top | Daniel Adams-ray Tabs for Gubben I Ladan. Lyrics for acoustic guitar and electric guitar. Tablatures and chords are parodies/interpretations of the original songs. You may use it for private study, scholarship, research or language learning purposes only