» » »

Danger Radio, Your Kind Speak To Me Tabs (ver.4)

Artists:  A B C D E F G H I J K L M N O P Q R S T U V W X Y Z # 

Your Kind Speak To Me Tabs (ver.4)

Danger Radio Tabs
 Rating:
4/5 (4 votes)
Your Kind Speak To Me lessons Tabs too difficult? Try these video lessons and learn fast
1
                
for a little while but was just too lazy to put them on
the internet. I can't say this is 100% right, but it
sounds right and works. I play this acoustically.

standard tuning

Intro:

e-------------------------------------------------    [---------]
B-------------------------------------------------    [---------]
G-----------1-0----------------------------------- X2 [---------]
D-----3----------3----3-3-------------------------    [-5-5-4-3-]
A------------------3--4-4-----3------3------------    [-5-5-4-3-]
E--1----1-----------------3h4---4--3---3---3-3-2-1    [-3-3-2-1-]

                                              Alt. ending for 2nd intro^

Verse:

e------------------------------------------|
B------------------------------------------|
G--------6-6-------------------------------|     X4
D-3-3----6-6----6-6----5-5----5-5-4-3------|
A-3-3----4-4----6-6----5-5----5-5-4-3------|
E-1-1-----------4-4----3-3----3-3-2-1------|

Pre-Chorus:

e-------------------------------|
B-------------------------------|
G-3-3----3-3--------------------|
D-3-3----3-3----3-3----3-3------|     X2
A-1-1----1-1----3-3----3-3------|
E---------------1-1----1-1------|

Chorus:

e------------------------------------------|
B------------------------------------------|
G-----------6xx6-6x---5xx5-5x---7-7-7-7----|
D-3xx3-3x---6xx6-6x---6xx6-6x---8-8-8-8----|   X4
A-3xx3-3x---4xx4-4x---6xx6-6x---8-8-8-8----|
E-1xx1-1x-------------4xx4-4x---6-6-6-6----|

Intro X1

Verse X4

Pre-Chrorus X2

Chorus X4

Break:

e-------------------------|
B-------------------------|
G-3~----6~----5~----7~----|
D-3~----6~----6~----8~----|   X2
A-1~----4~----6~----8~----|
E-------------4~----6~----|

Break 2: (quite part)

e----                               -----------------|
B----                               -----------------|
G----     X4                        -----------------|
D-3-3 listen for  then end break on -1-----1-----1h3-|
A-3-3  strumming                    ----3-----3------|
E-1-1                               -----------------|

Chorus X4

Okay there ya have it. As usual listen to the
song to get all the strumming and clicks right
because i didn't add it in. enjoi
            
Submit corrections

comments powered by Disqus
↑ Back to top | Danger Radio Tabs for Your Kind Speak To Me. Lyrics for acoustic guitar and electric guitar. 1 Tablatures and chords are parodies/interpretations of the original songs. You may use it for private study, scholarship, research or language learning purposes only