» » »

Slow Tabs (ver.2)

Artists:  A B C D E F G H I J K L M N O P Q R S T U V W X Y Z # 

Slow Tabs (ver.2)

Danger Radio
Rating:
4/5 (6 votes)

Hard to play? Try these video lessons and learn fast.
                I know that this isn't completely right but I think it sounds fine when playing it with 
song :) (I apologize if I name some of the chords wrong, just play the note I have 
 I tabbed out both guitars

(Listen to the song for the strumming :) )

---------------------------------------|
---------------------------------------|
--7---------------10---12-------4------|
--7---7---5---2---10---12---4---4------|
--5---7---5---2---8----10---4---2------|
------5---3---0---8----10---2----------|
    D   Am  Gm   Em    F         G 
  F#m   B


Guitar 1 Intro/ Verse   (play until chorus starts)
--------------------------------------------------------------------------------|
--------------------------------------------------------------------------------|
------------------------------------------------------------8-9-10--------------|
-7-10-9--9-10-14-9-10--9/10/9/10---7-10-9--9-10-14-9-10-----------9--12-12------|
--------------------------------------------------------------------------------|
--------------------------------------------------------------------------------|


--------------------------------------|
--------------------------------------|
--------------------------------------|
-7--10-10-----------------------------|
------------7--12-12------------------|
--------------------------------------|

Chorus

D   Am   Gm  D Am  Em  Em

Intro/Verse     x1

Verse 2  x2

Am  D  F  G  Am

Chrous

Bridge  x2

Am  Am  D  Am

Chorus

Guitar 2

Intro

---------------------------------------------|
----------------------4-5-6------------------|
------5-5----5-5--------------4/5/4/5--------|
---------------------------------------------|
---------------------------------------------|
---------------------------------------------|

Verse  (repeat until chorus)

-------------------------------------------------------------------------------------|
-------------------------------------------------------------------------------------|
--5-4--9/12-12/14-12-10-9--5-4---9/12-12/14-12-10-9--99-10--1010-9-99-10--1010-9-----|
7-------------------------------7----------------------------------------------------|
-------------------------------------------------------------------------------------|
-------------------------------------------------------------------------------------|

Chorus

B/D   D   F#m/Am    Am  G 
 B/D   D   F#m/Am   Am   Em  Em


Verse x1


Verse 2  x2

Am  D  F  G  Am


Chrous

Bridge  x2

Am  Am  D  Am

Chorus



Hope you enjoy and feel inspired to add more Danger Radio Tabs :)
            
Hard to play? Try these video lessons and learn fast. | Correct




comments powered by Disqus
↑ Back to top | Tablatures and chords are parodies/interpretations of the original songs. You may use it for private study, scholarship, research or language learning purposes only