>
 >
Fast

Fast Guitar Tabs

Danger Radio - Fast chords, tabs, tablatures, lyrics

Guitar lessons | Add/correct | Request | Top 50 tabs Artists:  A B C D E F G H I J K L M N O P Q R S T U V W X Y Z 0-9

Fast Guitar Tabs – Danger Radio

CD, Sheet music, Poster

Do you like Fast? Share with your friends now
Tabs
I'm working on a couple of D:R songs as some first time tabs, cos there aren't
many of their songs here. Email me if you can add to it, but I'm 100% the main
chords from intro are right from watching them on video.

you figure out the strumming yeah?

Intro and Verse: Guitar 1 - Pull off the chords just before the next one, making
sure the 3rd string is clearly heard

e|-------------------------|
B|-------------------------|
G|-12-\-5---9----9---/10---|
D|-10-\-3---10---10---10---|
A|-12-\-5---8----11---11---|
E|-------------------------|

Guitar 2 - I'm not entirely sure, but it sounds right (same strumming as guitar 1)

e|---------------------|
B|-12---10---13---12---|
G|-12---10---10---9----|
D|-10---12---x----x----|
A|-----------12---11---|
E|----------(13)-(12)--|

Pre-Chorus bit - This one is kinda hard to hear, and I'm not 100%


Guitar 1
e|---------------------------------------------------| x3
B|-----5----------5-------------3----------3---------|
G|---5----------5----5---5------4----------4---------|
D|-3------3-3-3--------3------5----------5----5---5--|
A|--------------------------3------3-3-3--------3----|
E|---------------------------------------------------|

Guitar 2
e|-------------------------------------------------| x3
B|------------------------------------------3h5p3--|
G|-----5---------5------------4---------4----------|
D|---3---------3---3---3----2---------2---2--------|
A|-5-----5-5-5-------5----3-----3-3-3--------------|
E|-------------------------------------------------|

Guitar 1
e|---------------------------------|
B|--------5~-----------------------|
G|------5-------9---9---9------9~--|
D|----3---------10--10--10-----10~-|
A|-5------------8---8---8------11~-|
E|---------------------------------|

Guitar 2
e|---5~---------------------------------|
B|------8-5b6-5---9---9---9------9~-----|
G|-5~-------------10--10--10-----10~----|
D|----------------8---8---8------11~----|
A|--------------------------------------|
E|--------------------------------------|

Verse

Guitar 1
e|-------------------------|
B|-------------------------|
G|-------------------------|
D|-12-\-5---9----9---/10---|
A|-10-\-3---10---10---10---|
E|-12-\-5---8----11---11---|

Guitar 2

e|---------------------|
B|-12---10---13---12---|
G|-12---10---10---9----|
D|-10---12---x----x----|
A|-----------12---11---|
E|----------(13)-(12)--|

Pre-Chorus


Guitar 1
e|---------------------------------------------------| x3
B|-----5----------5-------------3----------3---------|
G|---5----------5----5---5------4----------4---------|
D|-3------3-3-3--------3------5----------5----5---5--|
A|--------------------------3------3-3-3--------3----|
E|---------------------------------------------------|

Guitar 2
e|-------------------------------------------------| x3
B|------------------------------------------3h5p3--|
G|-----5---------5------------4---------4----------|
D|---3---------3---3---3----2---------2---2--------|
A|-5-----5-5-5-------5----3-----3-3-3--------------|
E|-------------------------------------------------|

Guitar 1
e|---------------------------------|
B|--------5~-----------------------|
G|------5-------9---9---9------9~--|
D|----3---------10--10--10-----10~-|
A|-5------------8---8---8------11~-|
E|---------------------------------|

Guitar 2
e|---5~---------------------------------|
B|------8-5b6-5---9---9---9------9~-----|
G|-5~-------------10--10--10-----10~----|
D|----------------8---8---8------11~----|
A|--------------------------------------|
E|--------------------------------------|

I am basically stumped on the chorus cos i cant tell whether it is the bass or
the keyboard or whatever. but i guess the main chords are just:

e|-------------|
B|-10----------|
G|-9---10--12--|
D|-7---10--12--|
A|-----8---10--|
E|-------------|

OR

e|-----------|
B|-10--10-10-|
G|-9---9--9--|
D|-7---7--x--|
A|-----8--10-|
E|-----------|

thats as far as i got to, but as i said mail me or message me of youve got anything to say
cheers





Comments


Popular Danger Radio tabs & chords
Your Kind (Speak To Me) Bass Tabs
Slow Chords
Set You Free Intro Tabs
Slow 1 Tabs
So Far So Gone Tabs
Your Kind (Speak To Me) Tabs
Your Kind Speak To Me Tabs
Your Kind Speak To Me Intro Tabs
Slow Ukulele
Slow Dance With A Stranger Ukulele


Song lyrics



↑ Back to top | Tablatures and chords are parodies/interpretations of the original songs. You may use it for private study, scholarship, research or language learning purposes only
© 2014 AZChords.com Contact us | Privacy policy | DMCA | Add/correct tabs | Request tabs | Top 50 tabs