>
 >
That Dog

That Dog Bass Tabs

Dangerous Toys - That Dog chords, tabs, tablatures, lyrics

Guitar lessons | Add/correct | Request | Top 50 tabs Artists:  A B C D E F G H I J K L M N O P Q R S T U V W X Y Z 0-9

That Dog Bass Tabs – Dangerous Toys

CD, Sheet music, Poster

Do you like That Dog? Share with your friends now
Bass TabsTabs
-------------------------------------------------------------------------------
-------------------------------------------------------------------------------


Tuning: Standard


Bass

     H        Q     Q        E  E   E  E   E  E   E  E     E  E  E  E   E  E  E  E   
G||-----------------------|-----------------------------|---------------------------|
D||-----------------------|-----------------------------|---------------------------|
A||-----------------------|------------7--10--7---------|-----------7--10--7--------|
E||----------------12\----|--0--0--10------------10--0--|--L--0--9------------9--0--|


  E  E  E  E   E  E  E  E     E  E  E  E   E  E  E  E     E  E   E  E   E  E   E  E   
---------------------------|---------------------------|-----------------------------|
---------------------------|---------------------------|-----------------------------|
-----------7--10--7--------|--------------10--9--7--9--|------------7--10--7---------|
--L--0--8------------8--0--|--L--5--6--7---------------|--0--0--10------------10--0--|


  E  E  E  E   E  E  E  E     E  E  E  E   E  E  E  E     E  E  E  E   E  E  E  E   
---------------------------|---------------------------|---------------------------|
---------------------------|---------------------------|---------------------------|
-----------7--10--7--------|-----------7--10--7--------|--------------10--9--7--9--|
--L--0--9------------9--0--|--L--0--8------------8--0--|--L--5--6--7---------------|


  E  E   H         E  E     E  E  H        E  E     E  E  H        E  E   
-------------------------|-----------------------|-----------------------|
-------------------------|-----------------------|-----------------------|
-------------------------|-----------------------|-----------------------|
--0--0--10---------L--0--|--0--0--9--------L--0--|--0--0--8--------L--0--|


  E  E  E  E   E  E  E  E     E  E   Q     Q     E  E     E  E  Q    Q    E  E   
---------------------------|---------------------------|------------------------|
---------------------------|---------------------------|------------------------|
--------------10--9--7--9--|---------------------------|------------------------|
--L--5--6--7---------------|--0--0--10----10----10--0--|--0--0--9----9----9--0--|


  E  E  Q    Q    E  E     E  E  E  E   E  E  E  E     E  E  E  E  E  E  E  E   
------------------------|---------------------------|--------------------------|
------------------------|---------------------------|--------------------------|
------------------------|--------------10--9--7--9--|--------------------------|
--0--0--8----8----8--0--|--L--5--6--7---------------|--3--3--3--3--3--3--3--7--|


  E  E  E  E  E  E  E  E     E  E  E  E  E  E  E  E     E  E  E  E   E  E  E  E   
--------------------------|--------------------------|---------------------------|
--------------------------|--------------------------|---------------------------|
--------------------------|--------------------------|--------------10--9--7--9--|
--L--7--7--7--7--7--7--7--|--6--6--6--6--6--6--6--0--|--L--5--6--7---------------|


  E  E  E  E  E  E  E  E     E  E  E  E  E  E  E  E     E  E  E  E  E  E  E  E   
--------------------------|--------------------------|--------------------------|
--------------------------|--------------------------|--------------------------|
--------------------------|--------------------------|--------------------------|
--3--3--3--3--3--3--3--7--|--L--7--7--7--7--7--7--7--|--1--1--1--1--1--1--1--0--|


  E  E  E  E   E  E  E  E     E  E   E  E   E  E   E  E     E  E  E  E   E  E  E  E   
---------------------------|-----------------------------|---------------------------|
---------------------------|-----------------------------|---------------------------|
--------------10--9--7--9--|------------7--10--7---------|-----------7--10--7--------|
--L--5--6--7---------------|--0--0--10------------10--0--|--L--0--9------------9--0--|


  E  E  E  E   E  E  E  E     E  E  E  E   E  E  E  E     E  E   Q     Q     E  E   
---------------------------|---------------------------|---------------------------|
---------------------------|---------------------------|---------------------------|
-----------7--10--7--------|--------------10--9--7--9--|---------------------------|
--L--0--8------------8--0--|--L--5--6--7---------------|--0--0--10----10----10--0--|


  E  E  Q    Q    E  E     E  E  Q    Q    E  E     E  E  E  E   E  E  E  E   
------------------------|------------------------|---------------------------|
------------------------|------------------------|---------------------------|
------------------------|------------------------|--------------10--9--7--9--|
--0--0--9----9----9--0--|--0--0--8----8----8--0--|--L--5--6--7---------------|


  E  E   Q     Q     E  E     E  E  Q    Q    E  E     E  E  Q    Q    E  E   
---------------------------|------------------------|------------------------|
---------------------------|------------------------|------------------------|
---------------------------|------------------------|------------------------|
--0--0--10----10----10--0--|--0--0--9----9----9--0--|--0--0--8----8----8--0--|


  E  E  E  E   E  E  E  E     E  E  E  E  E  E  E  E     E  E  E  E  E  E  E  E   
---------------------------|--------------------------|--------------------------|
---------------------------|--------------------------|--------------------------|
--------------10--9--7--9--|--------------------------|--------------------------|
--L--5--6--7---------------|--3--3--3--3--3--3--3--7--|--L--7--7--7--7--7--7--7--|


  E  E  E  E  E  E  E  E     E  E  E  E   E  E  E  E     E  E  E  E  E  E  E  E   
--------------------------|---------------------------|--------------------------|
--------------------------|---------------------------|--------------------------|
--------------------------|--------------10--9--7--9--|--------------------------|
--6--6--6--6--6--6--6--0--|--L--5--6--7---------------|--3--3--3--3--3--3--3--7--|


  E  E  E  E  E  E  E  E     E  E  E  E  E  E  E  E     E  E  E  E   E  E  E  E   
--------------------------|--------------------------|---------------------------|
--------------------------|--------------------------|---------------------------|
--------------------------|--------------------------|--------------10--9--7--9--|
--L--7--7--7--7--7--7--7--|--1--1--1--1--1--1--1--0--|--L--5--6--7---------------|


  E  E  E  E  E  E  E  E     E  E  E  E  E  E  E  E     E  E  E  E  E  E  E  E   
--------------------------|--------------------------|--------------------------|
--------------------------|--------------------------|--------------------------|
--------------------------|--------------------------|--------------------------|
--5--5--5--5--5--5--5--5--|--5--5--5--5--5--5--5--3--|--5--5--5--5--5--5--5--5--|


  E  E  E  E  E  E  E  E     E  E  E  E  E  E  E  E     E  E  E  E  E  E  E  E   
--------------------------|--------------------------|--------------------------|
-----------------5--------|--------------------------|--------------------------|
-----3--5--6--7-----7--5--|--5--5--5--5--5--5--5--5--|--5--5--5--5--5--5--5--3--|
--5-----------------------|--------------------------|--------------------------|


  E  E  E  E  E  E  E  E     E  E  E  E  E  E  E  E     E  E  E  E  E  S S S S S S   
--------------------------|--------------------------|------------------------------|
--------------------------|--------------------------|------------------------------|
--3--3--3--3--3--3--3--3--|--3--3--3--3--3--3--3--3--|--------7--------7-5----------|
--------------------------|--------------------------|--3--0-----0---------6-5-0-3b-|


  E  E  E  E  E  S S S S S S     E  E  E  E  E  S S S S S S    E  E  E  E  E  S S S S S S  
------------------------------|-----------------------------|-----------------------------|
------------------------------|-----------------------------|-----------------------------|
--------7--------7-5----------|--------7--------7-5---------|--------7--------7-5---------|
--L--0-----0---------6-5-0-3b-|--L--0-----0---------6-5-0-3-|--L--0-----0---------6-5-0-3-|


  E  E  E  E  E  S S S S S S    E  E  E  E  E  S S S S S S    E  E  E  E  E  S S S S S S  
-----------------------------|-----------------------------|-----------------------------|
-----------------------------|-----------------------------|-----------------------------|
--------7--------7-5---------|--------7--------7-5---------|--------7--------7-5---------|
--L--0-----0---------6-5-0-3-|--L--0-----0---------6-5-0-3-|--L--0-----0---------6-5-0-3-|


  E  E  E  E  E  S S S S E     E  E  Q    Q    E  E     E  E  Q    Q    E  E   
----------------------------|------------------------|------------------------|
----------------------------|------------------------|------------------------|
--------7--------7-5--------|------------------------|------------------------|
--L--0-----0---------6-5-0--|--3--3---------------7--|--L--7---------------6--|


  E  E  Q    Q    E  E     E  E  E  E   E  E  E  E     E  E  Q    Q    E  E   
------------------------|---------------------------|------------------------|
------------------------|---------------------------|------------------------|
------------------------|--------------10--9--7--9--|------------------------|
--L--6---------------0--|--L--5--6--7---------------|--3--3---------------7--|


  E  E  Q    Q    E  E     E  E  H        E  E     E  E  E  E   E  E  E  E   
------------------------|-----------------------|---------------------------|
------------------------|-----------------------|---------------------------|
------------------------|-----------------------|--------------10--9--7--9--|
--L--7---------------1--|--L--1--L--------1--0--|--L--5--6--7---------------|


  E  E  E  E  E  E  E  E     E  E  E  E  E  E  E  E     E  E  E  E  E  E  E  E   
--------------------------|--------------------------|--------------------------|
--------------------------|--------------------------|--------------------------|
--------------------------|--------------------------|--------------------------|
--0--0--0--0--0--0--0--0--|--0--0--0--0--0--0--0--0--|--0--0--0--0--0--0--0--5--|


  E  E  E  E  E  E  E  E     E  E  E  E  E  E  E  E     E  E  E  E  E  E  E  E   
--------------------------|--------------------------|--------------------------|
--------------------------|--------------------------|--------------------------|
--------------------------|--------------------------|--------------------------|
-----0-----5-----0-----0--|--5--5--5--5--5--5--5--5--|--5--5--5--5--5--5--5--5--|


  E  E  E  E  E  E  E  E     E  E  E  E  E  E  E  E     E  E  E  E  E  E  E  E   
--------------------------|--------------------------|--------------------------|
--------------------------|--------------------------|--------------------------|
-----------------------5--|-----------5--------------|--5--5--5--5--5--5--5--5--|
--5--5--5--5--5--5--5-----|-----5-----------5-----5--|--------------------------|


  E  E  E  E  E  E  E  E     E  E  E  E  E  E  E  E     E  E  E  E  Q    Q     
--------------------------|--------------------------|------------------------|
--------------------------|--------------------------|------------------------|
--5--5--5--5--5--5--3--4--|--5--5--5--4--4--4--3--3--|--3--2--2--2--1---------|
--------------------------|--------------------------|-------------------5----|


  E  E   E  E   E  E   E  E     E  E  E  E   E  E  E  E     E  E  E  E   E  E  E  E   
-----------------------------|---------------------------|---------------------------|
-----------------------------|---------------------------|---------------------------|
------------7--10--7---------|-----------7--10--7--------|-----------7--10--7--------|
--0--0--10------------10--0--|--L--0--9------------9--0--|--L--0--8------------8--0--|


  E  E  E  E   E  E  E  E     E  E   Q     Q     E  E     E  E  Q    Q    E  E   
---------------------------|---------------------------|------------------------|
---------------------------|---------------------------|------------------------|
--------------10--9--7--9--|---------------------------|------------------------|
--L--5--6--7---------------|--0--0--10----10----10--0--|--0--0--9----9----9--0--|


  E  E  Q    Q    E  E     E  E  E  E   E  E  E  E     E  E   Q     Q     E  E   
------------------------|---------------------------|---------------------------|
------------------------|---------------------------|---------------------------|
------------------------|--------------10--9--7--9--|---------------------------|
--0--0--8----8----8--0--|--L--5--6--7---------------|--0--0--10----10----10--0--|


  E  E  Q    Q    E  E     E  E  Q    Q    E  E     E  E  E  E   E  E  E  E   
------------------------|------------------------|---------------------------|
------------------------|------------------------|---------------------------|
------------------------|------------------------|--------------10--9--7--9--|
--0--0--9----9----9--0--|--0--0--8----8----8--0--|--L--5--6--7---------------|


  E  E  E  E  E  E  E  E     E  E  E  E  E  E  E  E     E  E  E  E  E  E  E  E   
--------------------------|--------------------------|--------------------------|
--------------------------|--------------------------|--------------------------|
--------------------------|--------------------------|--------------------------|
--5--5--5--5--5--5--5--5--|--5--5--5--5--5--5--5--3--|--5--5--5--5--5--5--5--5--|


  E  E  E  E  E  E  E  E     E  E  E  E  E  E  E  E     E  E  E  E  E  E  E  E   
--------------------------|--------------------------|--------------------------|
-----------------5--------|--------------------------|--------------------------|
-----3--5--6--7-----7--5--|--5--5--5--5--5--5--5--5--|--5--5--5--5--5--5--5--3--|
--5-----------------------|--------------------------|--------------------------|


  E  E  E  E  E  E  E  E     E  E  E  E  E  E  E  E     E  E  E  E  E  E  E  E   
--------------------------|--------------------------|--------------------------|
-----------------------5--|-----------5--------------|--------------------------|
--3--3--3--3--3--3--3-----|--3--3--3-----3--3--3--5--|--------------------------|
--------------------------|--------------------------|--5--5--5--5--5--5--5--5--|


  E  E  E  E  E  E  E  E     E  E  E  E  E  E  E  E     E  E  E  E  E  E  E  E   
--------------------------|--------------------------|--------------------------|
--------------------------|--------------------------|-----------------5--------|
--------------------------|--------------------------|-----3--5--6--7-----7--5--|
--5--5--5--5--5--5--5--3--|--5--5--5--5--5--5--5--5--|--5-----------------------|


  E  E  E  E  E  E  E  E     E  E  E  E  E  E  E  E     E  E  E  E  E  E  E  E   
--------------------------|--------------------------|--------------------------|
--------------------------|--------------------------|--------------------------|
--5--5--5--5--5--5--5--5--|--5--5--5--5--5--5--5--3--|--3--3--3--3--3--3--3--3--|
--------------------------|--------------------------|--------------------------|


  E  E  E  E  E  E  E  E     E  E  E  E  E  E  E  E     E  E  E  E  Q    Q     
--------------------------|--------------------------|------------------------|
--------------------------|--------------------------|------------------------|
--3--3--3--3--3--0--3--5--|--5--5--5--4--4--4--3--3--|--3--2--2--2--1---------|
--------------------------|--------------------------|-------------------5----|


  E  E  E  E  E  S S S S S S    E                                        E  E  E  H          
-----------------------------|-------------------------------------------------------------||
-----------------------------|-------------------------------------------------------------||
--------7--------7-5---------|----------------------------------------------7--------------||
--3--0-----0---------7-6-5-3-|--L----------------------------------------0-----0-----------||




Duration Legend
---------------
W - whole
H - half
Q - quarter
E - 8th
S - 16th
T - 32nd
X - 64th
. - note dotted
|-n-|  - n-tuplets


Tablature Legend
----------------
L - tied note
x - dead note
g - grace note
(n) - ghost note
> - accentuded note
NH - natural harmonic
AH - artificial harmonic
TH - tapped harmonic
SH - semi harmonic
PH - pitch harmonic
h - hammer on
p - pull off
b - bend
br - bendRelease
pb - preBend
pbr - preBendRelease
brb - bendReleaseBend
\n/ - tremolo bar dip
\n - tremolo bar dive
-/n - tremolo bar Release up
/n\ - tremolo bar inverted dip
/n - tremolo bar return
-\n - tremolo bar Release down
S - shift slide
s - legato slide
/ -  slide into from below or out of upwards
\ -  slide into from above or out of downwards
~ - vibrato
W - wide vibrato
tr - trill
TP - tremolo picking
T - tapping
S - slap
P - pop
< - fade in
^ - brush up
v - brush down





Comments


Popular Dangerous Toys tabs & chords
Queen Of The Nile Bass Tabs
Scared Bass Tabs
Teas'n, Pleas'n Bass Tabs
Best Of Friends Tabs
New Anger Tabs
Scared Tabs
Sportn A Woody Intro Tabs
Teasin Pleasin Tabs
Teasn Pleasn 1 Tabs
That Dog Tabs


Song lyrics



↑ Back to top | Tablatures and chords are parodies/interpretations of the original songs. You may use it for private study, scholarship, research or language learning purposes only
© 2014 AZChords.com Contact us | Privacy policy | DMCA | Add/correct tabs | Request tabs | Top 50 tabs