» » »

Teasin Pleasin Tabs (ver.1)

Artists:  A B C D E F G H I J K L M N O P Q R S T U V W X Y Z # 

Teasin Pleasin Tabs (ver.1)

Dangerous Toys
Rating:
5/5 (2 votes)

Tabs too difficult? Try these video lessons and learn fast.
                #------------------------------------------------------------------------------##

                        Teasin' Pleasin'
                        by Dangerous Toys


E-|---------------------------------------------------------------------------|
B-|---------------------------------------------------------------------------|
G-|-2-2-------------2-2-------------------------------------------------------|
D-|-2-2-------------2-2-------------------------------------------------------|
A-|-0-0-3-4---------0-0-3-4---------------------------------------------------|
E-|---------2-3-2-3---------2-3-2---------------------------------------------|
    Riff One - Opening/Chorus

E-|---------------------------------------------------------------------------|
B-|---------------------------------------------------------------------------|
G-|-----7--10-12--------------------------------------------------------------|
D-|--7--5--8--10--------------------------------------------------------------|
A-|--5------------------------------------------------------------------------|
E-|---------------------------------------------------------------------------|
    Verse - play these chords then repeat Riff One

E-|---------------------------------------------------------------------------|
B-|---------------------------------------------------------------------------|
G-|---------------------------------------------------------------------------|
D-|----7-7-7-7-7--------------------------------------------------------------|
A-|----5-5-5-5-5-7-8-8-8-8-8-5------------------------------------------------|
E-|--------------5-6-6-6-6-6-3------------------------------------------------|
    "Now I see the vision, seein' is believin'"
E-|---------------------------------------------------------------------------|
B-|---------------------------------------------------------------------------|
G-|---------------------------------------------------------------------------|
D-|---2------------------------------5---------7-5---------7---9-9-9-9-9-9-9-9|
A-|---2----4---5---4-------4---5-4-2-5---------7-5---------7---9-9-9-9-9-9-9-9|
E-|---0--0---0---0---0-0-0---0-------3-3-3-3-3-5-3-3-3-3-3-5---7-7-7-7-7-7-7-7|
    "Hey mister, I didn't know she was your wife"              last time only

E-|---------------------------------------------------------------------------|
B-|---------------------------------------------------------------------------|
G-|----------------------------7-----7----------------------------------------|
D-|-------------------------5--7--5--7----------------------------------------|
A-|----------------5--4-----5--5--5--5----------------------------------------|
E-|-0--0--0--3--0--------0--3-----3-------------------------------------------|
    Backing for the solo

E-|---------------------------------------------------------------------------|
B-|---------------------------------------------------------------------------|
G-|-2--2--------------------------2--2----------------------------------------|
D-|-2--2--------------------------2--2--------4-------------------------------|
A-|-0--0--3--4--------------------0--0--3--4--4-------------------------------|
E-|-------------2--3--3--2--3--3--------------2-------------------------------|
    Slow part - "I don't even play by the rules"

E-|---------------------------------------------------------------------------|
B-|---------------------------------------------------------------------------|
G-|-2--2--------------------------2--2-----------------------12---------------|
D-|-2--2--------------------------2--2--------------12----12------------------|
A-|-0--0--3--4--------------------0--0--3--4-----12----12---------------------|
E-|-------------2--3--3--2--3--3--------------12------------------------------|
                                              Harm.
            
Tabs too difficult? Try these video lessons and learn fast.


comments powered by Disqus
↑ Back to top | Tablatures and chords are parodies/interpretations of the original songs. You may use it for private study, scholarship, research or language learning purposes only