>
 >
Scared

Scared Bass Tabs

Dangerous Toys - Scared chords, tabs, tablatures, lyrics

Guitar lessons | Add/correct | Request | Top 50 tabs Artists:  A B C D E F G H I J K L M N O P Q R S T U V W X Y Z 0-9

Scared Bass Tabs – Dangerous Toys

CD, Sheet music, Poster

Do you like Scared? Share with your friends now
Bass TabsTabs
-------------------------------------------------------------------------------
-------------------------------------------------------------------------------


Tuning: Standard




     H        Q     Q        E  E  E  S S E  E  E  E     E  E  E  S S E  E  E  E   
G||-----------------------|---------------------------|---------------------------|
D||-----------------------|--------3--3-3-3--3--L-----|--------3--3-3-3--3--L-----|
A||-----------------------|---------------------------|---------------------------|
E||----------------13\----|--1--1------------------1--|--L--1------------------1--|


  E  E  E  S S E  E  E  E     E  E  E  E  E  E  Q        E  E  E  S S E  E  E  E   
---------------------------|--------------------------|---------------------------|
--------3--3-3-3--3--L--1--|--L--1--------------------|--------3--3-3-3--3--L-----|
---------------------------|-----------5--5--3--L\----|---------------------------|
--L--1---------------------|--------------------------|--1--1------------------1--|


  E  E  E  S S E  E  E  E     E  E  E  S S E  E  E  E     E  E  E  E  E  E  Q      
---------------------------|---------------------------|--------------------------|
--------3--3-3-3--3--L-----|--------3--3-3-3--3--L--1--|--L--5--------------------|
---------------------------|---------------------------|-----------5--5--3--L\----|
--L--1------------------1--|--L--1---------------------|--------------------------|


  E  E  E  S S E  E  E  E     E  E  E  S S E  E  E  E     E  E  E  S S E  E  E  E   
---------------------------|---------------------------|---------------------------|
--------3--3-3-3--3--L-----|--------3--3-3-3--3--L-----|--------3--3-3-3--3--L--1--|
---------------------------|---------------------------|---------------------------|
--1--1------------------1--|--L--1------------------1--|--L--1---------------------|


  E  E  E  E  E  E  Q       E  E  E  S S E  E  E  E     E  E  E  S S E  E  E  E   
-------------------------|---------------------------|---------------------------|
--L--1-------------------|--------3--3-3-3--3--L-----|--------3--3-3-3--3--L-----|
-----------5--5--3--L----|---------------------------|---------------------------|
-------------------------|--1--1------------------1--|--L--1------------------1--|


  E  E  E  S S E  E  E  E     E  E  E  E  E  E  E  E     E  E  Q    E  E  E  E   
---------------------------|--------------------------|-------------------------|
--------3--3-3-3--3--L--1--|--L--1--------------------|-------------------------|
---------------------------|-----------5--5--3--3--3--|--L--5--5----5--5-----3--|
--L--1---------------------|--------------------------|-------------------------|


  E  E  Q    E  E  E  E     E  E  Q    E  E  E  E     E  E  E  E  E  E  E  E   
-------------------------|-------------------------|--------------------------|
-------------------------|-------------------------|--------------------------|
--L--5--5----5--5--------|-------------------------|-----------------------3--|
----------------------1--|--L--3--3----3--3-----1--|--L--3--5--3--L--3--------|


  E  E  Q    E  E  E  E     E  E  Q    E  E  E  E     E  E  Q    E  E  E  E   
-------------------------|-------------------------|-------------------------|
-------------------------|-------------------------|-------------------------|
--L--5--5----5--5-----3--|--L--5--5----5--5--------|-------------------------|
-------------------------|----------------------1--|--L--3--3----3--3-----1--|


  E  E  E  E  E  E   Q        E  E  E  S S E  E  E  E     E  E  E  S S E  E  E  E   
---------------------------|---------------------------|---------------------------|
---------------------------|--------3--3-3-3--3--L-----|--------3--3-3-3--3--L-----|
---------------------------|---------------------------|---------------------------|
--L--3--5--3--L--3--12\----|--1--1------------------1--|--L--1------------------1--|


  E  E  E  S S E  E  E  E     E  E  E  E  E  E  Q        E  E  E  S S E  E  E  E   
---------------------------|--------------------------|---------------------------|
--------3--3-3-3--3--L--1--|--L--1--------------------|--------3--3-3-3--3--L-----|
---------------------------|-----------5--5--3--L\----|---------------------------|
--L--1---------------------|--------------------------|--1--1------------------1--|


  E  E  E  S S E  E  E  E     E  E  E  S S E  E  E  E     E  E  E  E  E  E  Q      
---------------------------|---------------------------|--------------------------|
--------3--3-3-3--3--L-----|--------3--3-3-3--3--L--1--|--L--1--------------------|
---------------------------|---------------------------|-----------5--5--3--L\----|
--L--1------------------1--|--L--1---------------------|--------------------------|


  E  E  E  S S E  E  E  E     E  E  E  S S E  E  E  E     E  E  E  S S E  E  E  E   
---------------------------|---------------------------|---------------------------|
--------3--3-3-3--3--L-----|--------3--3-3-3--3--L-----|--------3--3-3-3--3--L--1--|
---------------------------|---------------------------|---------------------------|
--1--1------------------1--|--L--1------------------1--|--L--1---------------------|


  E  E  E  E  E  E  E  E     E  E  Q    E  E  E  E     E  E  Q    E  E  E  E   
--------------------------|-------------------------|-------------------------|
--L--1--------------------|-------------------------|-------------------------|
-----------5--5--3--L--3--|--L--5--5----5--5-----3--|--L--5--5----5--5--------|
--------------------------|-------------------------|----------------------1--|


  E  E  Q    E  E  E  E     E  E  E  E  E  E  E  E     E  E  Q    E  E  E  E   
-------------------------|--------------------------|-------------------------|
-------------------------|--------------------------|-------------------------|
-------------------------|-----------------------3--|--L--5--5----5--5-----3--|
--L--3--3----3--3-----1--|--L--3--5--3--L--3--------|-------------------------|


  E  E  Q    E  E  E  E     E  E  Q    E  E  E  E     E  E  E  E  E  E  E  E   
-------------------------|-------------------------|--------------------------|
-------------------------|-------------------------|--------------------------|
--L--5--5----5--5--------|-------------------------|--------------------------|
----------------------1--|--L--3--3----3--3-----1--|--L--3--5--3--L--3--3--3--|


  E  E  E  E  E  E  E  E     E  E  E  E  E  E  E  E     E  E  E  E  E  E  E  E   
--------------------------|--------------------------|--------------------------|
--------------------------|--------------------------|--------------------------|
--3--3--3--3--3--3--3--2--|--2--2--2--2--2--2--2-----|--------------------------|
--------------------------|-----------------------5--|--5--5--5--5--5--5--5--5--|


  E  E  E  E  E  E  E  E     E  E  E  E  E  E  E  E     E  E  E  E  E  E  E  E   
--------------------------|--------------------------|--------------------------|
--------------------------|--------------------------|--------------------------|
-----------------2--2--3--|--3--3--3--3--3--3--3--2--|--2--2--2--2--2--2--2-----|
--5--5--5--5--5-----------|--------------------------|-----------------------5--|


  E  E  E  E  E  E  E  E     E  E  E  E  E  E  Q        E  E  E  E  E  E  E  E   
--------------------------|--------------------------|--------------------------|
--------------------------|--------------------------|--------------------------|
--------------------------|--------------------------|--------------------------|
--5--5--5--5--5--5--5--5--|--5--5--5--5--5--5--5\----|--0--0--0--0--0--0--0--4--|


  E  E  E  E  E  E  E  E     E  E  E  E  E  E  E  E     E  E  E  E  E  E  E  E   
--------------------------|--------------------------|--------------------------|
--------------------------|--------------------------|--------------------------|
--------------------------|-----------------------5--|--L--5--5--5--5--5--5-----|
--L--4--4--4--4--4--4--3--|--L--3--3--3--3--3--3-----|-----------------------0--|


  E  E  E  E  E  E  E  E     E  E  E  E  E  E  E  E     E  E  E  E  E  E  E  E   
--------------------------|--------------------------|--------------------------|
--------------------------|--------------------------|--------------------------|
--------------------------|--------------------------|-----------------------5--|
--0--0--0--0--0--0--0--4--|--L--4--4--4--4--4--4--3--|--L--3--3--3--3--3--3-----|


  E  E  E  E  E  E  E  E     E  E  E  E  E  E  E  E     E  E  E  E  E  E  E  E   
--------------------------|--------------------------|--------------------------|
--------------------------|--------------------------|--------------------------|
--L--5--5--5--5--5--5-----|-----------------------2--|--L--2--2--2--2--2--L--3--|
-----------------------5--|--L--5--5--5--5--5--L-----|--------------------------|


  E  E  E  E  E  E  E  E     E  E  E  E  E  E  E  E     E  E  E  E  E  E  E  E   
--------------------------|--------------------------|--------------------------|
--------------------------|--------------------------|--------------------------|
--L--3--3--3--3--3--0--5--|--L-----5--5--5-----------|--------------------------|
--------------------------|-----5-----------3--2--0--|--0--0--0--0--0--0--0--2--|


  E  E  E  E  E  E  E  E     E  E  E  E  E  E  E  E     E  E  E  E  E  E  E  E   
--------------------------|--------------------------|--------------------------|
--------------------------|--------------------------|--------------------------|
--------------------------|--------------------------|-----------------------2--|
--L--2--2--2--2--2--2--3--|--L--3--3--3--3--3--3--5--|--5--5--5--5--5--5--5-----|


  E  E  E  E  E  E  E  E     E  E  E  E  E  E  E  E     E  E  E  E  E  E  E  E   
--------------------------|--------------------------|--------------------------|
--------------------------|--------------------------|--------------------------|
--L--2--2--2--2--2--2--3--|--L--3--3--3--3--3--3--5--|--L--5--5--5--5--5--5--7--|
--------------------------|--------------------------|--------------------------|


  E  E  E  E  E  E  E  E     E  E  E  E  E  E  E  E     E  E  E  E  E  E  E  E   
--------------------------|--------------------------|--------------------------|
--------------------------|--------------------------|--------------------------|
--L-----------------------|--------------------------|--------------------------|
-----0--0--0--0--0--0--2--|--L--2--2--2--2--2--2--3--|--L--3--3--3--3--3--3--5--|


                                >                                               
  E  E  E  E  E  E  E  E     E  E  Q     E  E  E  E     E  E  Q    E  E  E  E   
--------------------------|--------------------------|-------------------------|
--------------------------|--------------------------|-------------------------|
--------------------------|-----8--L\----3--5--3--3--|--L--5--5----5--5-----3--|
--L--5--5--5--5--5--5--5--|--5-----------------------|-------------------------|


  E  E  Q    E  E  E  E     E  E  Q    E  E  E  E     E  E  E  E  E  E  E  E   
-------------------------|-------------------------|--------------------------|
-------------------------|-------------------------|--------------------------|
--L--5--5----5--5--------|-------------------------|-----------------------3--|
----------------------1--|--L--3--3----3--3-----1--|--L--3--5--3--L--3--------|


  E  E  Q    E  E  E  E     E  E  Q    E  E  E  E     E  E  Q    E  E  E  E   
-------------------------|-------------------------|-------------------------|
-------------------------|-------------------------|-------------------------|
--L--5--5----5--5-----3--|--L--5--5----5--5--------|-------------------------|
-------------------------|----------------------1--|--L--3--3----3--3-----1--|


                                            >                          >         
  E  E  E  E  E  E  E  E     E  E  E  E  E  E  E  E     E  E  E  E  E  E  E  E   
--------------------------|--------------------------|--------------------------|
--------------------------|--------------------------|--------------------------|
--------------------------|--3--3--3--3--3--5--3--2--|--2--2--2--2--2--3--2-----|
--L--3--5--3--L--3--3--1--|--------------------------|-----------------------5--|


                 P              P                                      >         
  E  E  E  E  E  E  E  E     E  E  E  E  E  E  E  E     E  E  E  E  E  E  E  E   
--------------------------|--------------------------|--------------------------|
-----------------7--------|-----7--------------------|--------------------------|
--------------------------|-----------------2--2--3--|--3--3--3--3--3--5--3--2--|
--5--5--5--5--5-----5--5--|--5-----5--5--5-----------|--------------------------|


                 >                                         >      >      >         
  E  E  E  E  E  E  E  E     E  E  E  E  E  E  E  E     E  E  E   E   E  E  E  E   
--------------------------|--------------------------|----------------------------|
--------------------------|--------------------7--7--|--L--9--L--10---L--9--L-----|
--2--2--2--2--2--3--2-----|-----------------7--------|----------------------------|
-----------------------5--|--5--5--5--5--5-----------|-------------------------5--|


                                            >  >                 >     >         
  E  E  E  E  E  E  E  E     E  E  E  E  E  E  E  E     E  E  E  E  E  E  E  E   
--------------------------|--------------------------|--------------------------|
--------------------------|--------------------------|--------------------------|
--3--3--3--3--3--3--3--2--|--2--2--2--2--2--2--2-----|--------------------------|
--------------------------|-----------------------5--|--5--5--5--5--5--5--5--5--|


                                                                          >  >   
  E  E  E  E  E  E  E  E     E  E  E  E  E  E  E  E     E  E  E  E  E  E  E  E   
--------------------------|--------------------------|--------------------------|
--------------------------|--------------------------|--------------------------|
-----------------2--2--3--|--3--3--3--3--3--3--3--2--|--2--2--2--2--2--2--2-----|
--5--5--5--5--5-----------|--------------------------|-----------------------5--|


  E  E  E  E  E  E  E  E     E  E  E  E  E  E   Q        E  E  E  E  E  E  E  E   
--------------------------|---------------------------|--------------------------|
--------------------------|---------------------------|--------------------------|
--------------------------|---------------------------|--------------------------|
--5--5--5--5--5--5--5--5--|--5--5--5--5--5--5--12\----|--0--0--0--0--0--0--0--4--|


  E  E  E  E  E  E  E  E     E  E  E  E  E  E  E  E     E  E  E  E  E  E  E  E   
--------------------------|--------------------------|--------------------------|
--------------------------|--------------------------|--------------------------|
--------------------------|-----------------------5--|--L--5--5--5--5--5--5-----|
--L--4--4--4--4--4--4--3--|--L--3--3--3--3--3--3-----|-----------------------0--|


  E  E  E  E  E  E  E  E     E  E  E  E  E  E  E  E     E  E  E  E  E  E  E  E   
--------------------------|--------------------------|--------------------------|
--------------------------|--------------------------|--------------------------|
--------------------------|--------------------------|-----------------------5--|
--L--0--0--0--0--0--0--4--|--L--4--4--4--4--4--4--3--|--L--3--3--3--3--3--3-----|


  E  E  E  E  E  E  E  E     Q    Q    H           W                   W                 
--------------------------|---------------------|-------------------|-------------------|
--------------------------|---------------------|-------------------|-------------------|
--L--5--5--5--5--5--5--6--|---------------------|-------------------|-------------------|
--------------------------|--0------------------|-------------------|-------------------|


  W                   E  E  E  E  E  E  E  E     E  E  E  E  E  E  E  E   
-------------------|--------------------------|--------------------------|
-------------------|--------------------------|--------------------------|
-------------------|--------------------------|--------------------------|
-------------------|--0--0--0--0--0--0--0--4--|--L--4--4--4--4--4--4--3--|


  E  E  E  E  E  E  E  E     E  E  E  E  E  E  E  E     E  E  E  E  E  E  E  E   
--------------------------|--------------------------|--------------------------|
--------------------------|--------------------------|--------------------------|
-----------------------5--|--L--5--5--5--5--5--5-----|--------------------------|
--L--3--3--3--3--3--3-----|-----------------------0--|--L--0--0--0--0--0--0--4--|


  E  E  E  E  E  E  E  E     E  E  E  E  E  E  E  E     E  E  E  E  E  E  E  E   
--------------------------|--------------------------|--------------------------|
--------------------------|--------------------------|--------------------------|
--------------------------|-----------------------5--|--L--5--5--5--5--5--5-----|
--L--4--4--4--4--4--4--3--|--L--3--3--3--3--3--3-----|-----------------------0--|


  E  E  E  E  E  E  E  E     E  E  E  E  E  E  E  E     E  E  E  E  E  E  E  E   
--------------------------|--------------------------|--------------------------|
--------------------------|--------------------------|--------------------------|
--------------------------|--------------------------|-----------------------5--|
--L--0--0--0--0--0--0--4--|--L--4--4--4--4--4--4--3--|--L--3--3--3--3--3--3-----|


  E  E  E  E  E  E  E  E     E  E  E  E  E  E  E  E     E  E  E  E  E  E  E  E   
--------7-----------7-----|--------------------------|--------------------------|
-----7-----7-----7--------|--------------------------|--------------------------|
--L-----------5-----------|--------------------------|--------------------------|
-----------------------0--|--L--0--0--0--0--0--0--4--|--L--4--4--4--4--4--4--3--|


  E  E  E  E  E  E  E  E     E  E  E  E  E  E  E  E     E  E  E  E  E  E  E  E   
--------------------------|-----------------7--------|--------------------------|
--------------------------|--------------7-----7-----|--------------------------|
-----------------------5--|--L--5--L--5--------------|--------------------------|
--L--3--3--3--3--3--3-----|-----------------------0--|--L--0--0--0--0--0--0--4--|


  E  E  E  E  E  E  E  E     E  E  E  E  E  E  E  E     E  E  E  E  E  E  E  E   
--------------------------|--------------------------|-----------------7--------|
--------------------------|--------------------------|--------------7-----7-----|
--------------------------|-----------------------5--|--L--5--L--5--------------|
--L--4--4--4--4--4--4--3--|--L--3--3--3--3--3--3-----|-----------------------0--|


  E  E  E  E  E  E  E  E     E  E  E  E  E  E  E  E     E  E  E  E  E  E  E  E   
--------------------------|--------------------------|--------------------------|
--------------------------|--------------------------|--------------------------|
--------------------------|--------------------------|-----------------------5--|
--L--0--0--0--0--0--0--4--|--L--4--4--4--4--4--4--3--|--L--3--3--3--3--3--3-----|


  E  E  E  E  E  E  E  E     E  E  E  E  E  E  E  E     E  E  E  E  E  E  E  E   
--------------------------|--------------------------|--------------------------|
--------------------------|--------------------------|--------------------------|
--L--5--5--5--5--5--5-----|--------------------------|--------------------------|
-----------------------0--|--L--0--0--0--0--0--0--4--|--L--4--4--4--4--4--4--3--|


  E  E  E  E  E  E  E  E     E  E  E  E  E  E  E  E     E  E  E  E  E  E  E  E   
--------------------------|--------------------------|--------------------------|
--------------------------|--------------------------|--------------------------|
-----------------------5--|--L--5--5--5--5--5--5-----|--------------------------|
--L--3--3--3--3--3--3-----|-----------------------0--|--L--0--0--0--0--0--0--4--|


  E  E  E  E  E  E  E  E     E  E  E  E  E  E  E  E     E  E  E  E  E  E  E  E   
--------------------------|--------------------------|--------------------------|
--------------------------|--------------------------|--------------------------|
--------------------------|-----------------------5--|--L--5--5--5--5--5--5-----|
--L--4--4--4--4--4--4--3--|--L--3--3--3--3--3--3-----|-----------------------0--|


  E  E  E  E  E  E  E  E     E  E  E  E  E  E  E  E    
--------------------------|--------------------------||
--------------------------|--------------------------||
--------------------------|--------------------------||
--L--0--0--0--0--0--0--4--|--L--4--4--4--4--4--4--3--||




Duration Legend
---------------
W - whole
H - half
Q - quarter
E - 8th
S - 16th
T - 32nd
X - 64th
. - note dotted
|-n-|  - n-tuplets


Tablature Legend
----------------
L - tied note
x - dead note
g - grace note
(n) - ghost note
> - accentuded note
NH - natural harmonic
AH - artificial harmonic
TH - tapped harmonic
SH - semi harmonic
PH - pitch harmonic
h - hammer on
p - pull off
b - bend
br - bendRelease
pb - preBend
pbr - preBendRelease
brb - bendReleaseBend
\n/ - tremolo bar dip
\n - tremolo bar dive
-/n - tremolo bar Release up
/n\ - tremolo bar inverted dip
/n - tremolo bar return
-\n - tremolo bar Release down
S - shift slide
s - legato slide
/ -  slide into from below or out of upwards
\ -  slide into from above or out of downwards
~ - vibrato
W - wide vibrato
tr - trill
TP - tremolo picking
T - tapping
S - slap
P - pop
< - fade in
^ - brush up
v - brush down





Comments


Popular Dangerous Toys tabs & chords
Queen Of The Nile Bass Tabs
Teas'n, Pleas'n Bass Tabs
That Dog Bass Tabs
New Anger Tabs
Promise The Moon Tabs
Sportn A Woody Intro Tabs
Teas'n, Pleas'n Tabs
Teasin Pleasin Tabs
Teasn Pleasn 1 Tabs
That Dog Tabs


Song lyrics



↑ Back to top | Tablatures and chords are parodies/interpretations of the original songs. You may use it for private study, scholarship, research or language learning purposes only
© 2014 AZChords.com Contact us | Privacy policy | DMCA | Add/correct tabs | Request tabs | Top 50 tabs