>
 >
Queen Of The Nile

Queen Of The Nile Bass Tabs

Dangerous Toys - Queen Of The Nile chords, tabs, tablatures, lyrics

Guitar lessons | Add/correct | Request | Top 50 tabs Artists:  A B C D E F G H I J K L M N O P Q R S T U V W X Y Z 0-9

Queen Of The Nile Bass Tabs – Dangerous Toys

CD, Sheet music, Poster

Do you like Queen Of The Nile? Share with your friends now
Bass TabsTabs
-------------------------------------------------------------------------------
-------------------------------------------------------------------------------


Tuning: Standard


Bass



     W                   W                   W                   W                 
G||-------------------|-------------------|-------------------|-------------------|
D||-------------------|-------------------|-------------------|-------------------|
A||-------------------|-------------------|-------------------|-------------------|
D||-------------------|-------------------|-------------------|-------------------|


  E  E  E  E  E  E  E  E     E  E  E  E  E  E  E  E     E  E  E  E  E  E  E  E   
--------------------------|--------------------------|--------------------------|
--------------------------|--------------------------|--------------------------|
--------------------------|--------------------------|--3--3--3--3--3--3--3--2--|
--0--0--0--0--0--0--0--0--|--0--0--0--0--0--0--0--0--|--------------------------|


  E  E  E  E  E  E  Q       E  E  E  E  E  E  E  E     E  E  E  E  E  E  E  E   
-----------------7--7----|--------------------------|--------------------------|
-------------------------|--------------------------|--------------------------|
--3--3--3--5--5----------|--5--------5-----5--5-----|--5--------5-----5--5-----|
-------------------------|-----0--0-----0--------0--|-----0--0-----0--------0--|


  E  E  E  E  E  E  E  E     E  E  E  E  E  E  E  E     E  E  E  E  E  E  E  E   
--------------------------|--------------------------|--------------------------|
--------------------------|-----3--2--------5--4-----|--------------------------|
--3--3--3--3--3--3--3--2--|--3--------3--5--------3--|--5--------5-----5--5-----|
--------------------------|--------------------------|-----0--0-----0--------0--|


  E  E  E  E  E  E  E  E     E  E  E  E  E  E  E  E     E  E  E  E  E  E  E  E   
--------------------------|--------------------------|--------------------------|
--------------------------|--------------------------|-----3--2--------5--4-----|
--5--------5-----5--5-----|--3--3--3--3--3--3--3--2--|--3--------3--5--------3--|
-----0--0-----0--------0--|--------------------------|--------------------------|


  E  E  E  E  E  E  E  E     E  E  E  E  E  E  E  E     E  E  E  E  E  E  E  E   
--------------------------|--------------------------|--------------------------|
--------------------------|-----------------5--------|--------------------------|
--------------------------|--------------------------|--------------------------|
--5--5--5--5--5--5--5--5--|--5--5--5--5--5--------5--|--5--5--5--5--5--5--5--5--|


  E  E  E   E  E  E  E  E     E  E  E  E  E  E  E  E     E  E  E  E  E  E  E  E   
---------------------------|--------------------------|--------------------------|
---------------------------|--------------------------|-----------------5--------|
--3--3--3s--5--5--5--5-----|--------------------------|--------------------------|
------------------------7--|--5--5--5--5--5--5--5--5--|--5--5--5--5--5--------5--|


  E  E  E  E  E  E  E  E     E  E  E   E  E  E  E  E     E  E  E  E  E  E  E  E   
--------------------------|---------------------------|--------------------------|
--------------------------|---------------------------|--------------------------|
--------------------------|--3--3--3s--5--5--5--5-----|--------------------------|
--5--5--5--5--5--5--5--5--|------------------------7--|--4--5-----5-----5-----5--|


  E  E  E  E  E  E  E  E     E  E  E  E  E  E   Q       E  E  E  E  E  E  E  E   
--------------------------|--------------------------|--------------------------|
-----------------------5--|--5--4--5--4--5--4\-------|-----3--2--------5--4-----|
-----------------5--------|--------------------------|--3--------3--5--------5--|
-----5-----5--------------|--------------------------|--------------------------|


  E  E  E  E  E  E  E  E     E  E  E  E  E  E  E  E     E  E  E  E  E  E  E  E   
--------------------------|--------------------------|--------------------------|
--------------------------|-----------------------5--|--5--4--5--4--5--4--------|
--------------------------|-----------------5--------|--------------------5--2--|
--4--5-----5-----5-----5--|-----5-----5--------------|--------------------------|


  E  E  E  E  E  E  E  E     E  E  E  E  E  E  E  E     E  E  E  E  E  E  E  E   
--------------------------|--------------------------|--------------------------|
-----3--2--------5--4-----|--------------------------|--------------------------|
--3--------3--5--------5--|--------------------------|--------------------------|
--------------------------|--2--2--2--2--2--2--2--2--|--2--2--2--2--2--2--2--4--|


  E  E  E  E  E  E  E  E     E  E  E  E  E  E  E  E     E  E  E  E  E  E  E  E   
--------------------------|--------------------------|--------------------------|
--------------------------|--------------------------|--------------------------|
--------------------------|-----0--2--0--------------|--------------------------|
--4--4--4--4--4--4--4--5--|--L-----------5--4--2--0--|--2--2--2--2--2--2--2--2--|


  E  E  E  E  E  E  E  E     E  E  E  E  E  E  E  E     E  E  E  E  E  E  Q     
--------------------------|--------------------------|-------------------------|
--------------------------|--------------------------|-------------------------|
--------------------------|--------------------------|--2----------------------|
--2--2--2--2--2--2--2--0--|--0--0--0--0--0--0--0--0--|-----2--L--3--L--4--L----|


  E  E  E  E  E  E  E  E     E  E  E  E  E  E  E  E     E  E  E  E  E  E  E  E   
--------------------------|--------------------------|--------------------------|
--------------------------|-----------------5--------|--------------------------|
--------------------------|--------------------------|--------------------------|
--5--5--5--5--5--5--5--5--|--5--5--5--5--5--------5--|--5--5--5--5--5--5--5--5--|


  E  E  E   E  E  E  E  E     E  E  E  E  E  E  E  E     E  E  E  E  E  E  E  E   
---------------------------|--------------------------|--------------------------|
---------------------------|--------------------------|-----------------5--------|
--3--3--3s--5--5--5--5-----|--------------------------|--------------------------|
------------------------7--|--5--5--5--5--5--5--5--5--|--5--5--5--5--5--------5--|


  E  E  E  E  E  E  E  E     E  E  E   E  E  E  E  E     E  E  E  E  E  E  E  E   
--------------------------|---------------------------|--------------------------|
--------------------------|---------------------------|--------------------------|
--------------------------|--3--3--3s--5--5--5--5-----|--------------------------|
--5--5--5--5--5--5--5--5--|------------------------7--|--4--5-----5-----5-----5--|


  E  E  E  E  E  E  E  E     E  E  E  E  E  E   Q       E  E  E  E  E  E  E  E   
--------------------------|--------------------------|--------------------------|
-----------------------5--|--5--4--5--4--5--4\-------|-----3--2--------5--4-----|
-----------------5--------|--------------------------|--3--------3--5--------5--|
-----5-----5--------------|--------------------------|--------------------------|


  E  E  E  E  E  E  E  E     E  E  E  E  E  E  E  E     E  E  E  E  E  E  E  E   
--------------------------|--------------------------|--------------------------|
--------------------------|-----------------------5--|--5--4--5--4--5--4--------|
--------------------------|-----------------5--------|--------------------5--2--|
--4--5-----5-----5-----5--|-----5-----5--------------|--------------------------|


  E  E  E   E  E  E  E  E     E  E  E  E  E  E  E  E     E  E  E  E  E  E  E  E   
---------------------------|--------------------------|--------------------------|
---------------------------|--------------------------|--------------------------|
--3--3--3s--5--5--5--5-----|--------------------------|--------------------------|
------------------------7--|--2--2--2--2--2--2--2--2--|--2--2--2--2--2--2--2--4--|


  E  E  E  E  E  E  E  E     E  E  E  E  E  E  E  E     E  E  E  E  E  E  E  E   
--------------------------|--------------------------|--------------------------|
--------------------------|--------------------------|--------------------------|
--------------------------|-----0--2--0--------------|--------------------------|
--4--4--4--4--4--4--4--5--|--L-----------5--4--2--0--|--2--2--2--2--2--2--2--2--|


  E  E  E  E  E  E  E  E     E  E  E  E  E  E  E  E     E  E  E  E  E  E  Q     
--------------------------|--------------------------|-------------------------|
--------------------------|--------------------------|-------------------------|
--------------------------|--------------------------|--2----------------------|
--2--2--2--2--2--2--2--0--|--0--0--0--0--0--0--0--0--|-----2--L--3--L--4--L----|


  E  E  Q    E  E  E  E     E  E  Q    E  E  E  E     E  E  Q    E  E  E  E   
-------------------------|-------------------------|-------------------------|
-------------------------|-------------------------|-------------------------|
--5-----5-------5-----3--|--L--3--3-------3-----1--|--L--1--1-------1-----5--|
-----0-------------------|-------------------------|-------------------------|


  E  E  Q    E  S  S E  E     E  E  Q    E  E  E  E     E  E  Q    E  E  E  E   
---------------------------|-------------------------|-------------------------|
----------------4h-5-4-----|-------------------------|-------------------------|
--L-----5---------------5--|--5-----5-------5-----3--|--L--3--3-------3-----1--|
-----0---------------------|-----0-------------------|-------------------------|


  E  E  Q    E  E  E  E     E  E  E  E  E  E  E  E     E  E  E  E  E  E  E  E   
-------------------------|--------------------------|--------------------------|
-------------------------|--------------------------|--------------------------|
--L--1--1-------1-----5--|--L-----5-----------------|--------------------------|
-------------------------|-----0-----0--0--0--0--0--|--2--2--2--2--2--2--2--2--|


  E  E  E  E  E  E  E  E     E  E  E  E  E  E  E  E     E  E  E  E  E  E  E  E   
--------------------------|--------------------------|--------------------------|
--------------------------|--------------------------|--------------------------|
--------------------------|--------------------------|-----------------5--5--7--|
--2--2--2--2--2--2--2--5--|--L--4--5--5--5--4--5--5--|--5--4--5--4--5-----------|


  E  E  E  E  E  E  E  E     E  E  E  E  E   E  E   E     E  E  E  E  E  E  E  E   
--------------------------|----------------------------|--------------------------|
--------------------------|----------------------------|--------------------------|
--7--7--7--7--7--7--7--7--|--7--7--7--7--7\--2--2S--5--|--5--5--5--5--5--5--5--5--|
--------------------------|----------------------------|--------------------------|


  E  E  E  E  E  E  E  E     E  E  E  E  E  E  E  E     E  E  E  E  E  E  E  E   
--------------------------|--------------------------|--------------------------|
-----5--4-----5--4--------|--------------------------|--------------------------|
--5--------5--------5-----|--------------------------|--------------------------|
-----------------------0--|--2--2--2--2--2--0--1--2--|--2--2--2--2--2--0--1--2--|


  E  E  E  E  E  E  E  E     E  E  E  E  E  E  E  E     E  E  E  E  E  E  E  E   
--------------------------|--------------------------|--------------------------|
--------------------------|--------------------------|--------------------------|
--------------------------|--------------------------|--------------------------|
--5--5--5--5--5--5--5--5--|--5--5--5--5--5--5-----7--|--L--7--7--7--7--7--7--7--|


  E  E  E  E  E  E  E  E     E  E  E  E  E  E  Q       E  E  E  E  E  E  E  E   
--------------------------|-------------------------|--------------------------|
--------------------------|-------------------------|--------------------------|
-----------------------2--|--L--2--2--2--2--2--L----|--3--3--3--3--5--5--5--5--|
--7--7--7--7--7--7--------|-------------------------|--------------------------|


  E  E  E  E  E  E  E  E     E  E  E  E  E  E  E  E     E  E  E  E  E  E  E  E   
--------------------------|--------------------------|--------------------------|
--------------------------|-----------------5--------|--------------------------|
--------------------------|--------------------------|--------------------------|
--5--5--5--5--5--5--5--5--|--5--5--5--5--5--------5--|--5--5--5--5--5--5--5--5--|


  E  E  E   E  E  E  E  E     E  E  E  E  E  E  E  E     E  E  E  E  E  E  E  E   
---------------------------|--------------------------|--------------------------|
---------------------------|--------------------------|-----------------------5--|
--3--3--3s--5--5--5--5-----|--------------------------|-----------------5--------|
------------------------7--|--4--5-----5-----5-----5--|-----5-----5--------------|


  E  E  E  E  E  E   Q       E  E  E   E  E  E  E  E     E  E  E  E  E  E  E  E   
--------------------------|---------------------------|--------------------------|
--5--4--5--4--5--4\-------|---------------------------|--------------------------|
--------------------------|--3--3--3s--5--5--5--5-----|--------------------------|
--------------------------|------------------------7--|--2--2--2--2--2--2--2--2--|


  E  E  E  E  E  E  E  E     E  E  E  E  E  E  E  E     E  E  E  E  E  E  E  E   
--------------------------|--------------------------|--------------------------|
--------------------------|--------------------------|--------------------------|
--------------------------|--------------------------|-----0--2--0--------------|
--2--2--2--2--2--2--2--4--|--4--4--4--4--4--4--4--5--|--L-----------5--4--2--0--|


  E  E  E  E  E  E  E  E     E  E  E  E  E  E  E  E     E  E  E  E  E  E  E  E   
--------------------------|--------------------------|--------------------------|
--------------------------|--------------------------|--------------------------|
--------------------------|--------------------------|-----------5--5--5--5--5--|
--2--2--2--2--2--2--2--2--|--2--2--2--2--2--2--2--0--|--0--0--0-----------------|


  E  E  E  E  E  E  Q       E  E  E  E  E  E  E  E     E  E  E  E  E  E  E  E   
-------------------------|--------------------------|--------------------------|
-------------------------|--------------------------|--------------------------|
--2----------------------|--5--------5-----5--5-----|--5--------5-----5--5-----|
-----2--L--3--L--4--L----|-----0--0-----0--------0--|-----0--0-----0--------0--|


  E  E  E  E  E  E  E  E     E  E  E  E  E  E  E  E     E  E  E  E  E  E  E  E   
--------------------------|--------------------------|--------------------------|
--------------------------|-----3--2--------5--4-----|--------------------------|
--3--3--3--3--3--3--3--2--|--3--------3--5--------3--|--5--------5-----5--5-----|
--------------------------|--------------------------|-----0--0-----0--------0--|


  E  E  E  E  E  E  E  E     E  E  E  E  E  E  E  E     E  E  E  E  E  E  E  E   
--------------------------|--------------------------|--------------------------|
--------------------------|--------------------------|-----3--2--------5--4-----|
--5--------5-----5--5-----|--3--3--3--3--3--3--3--2--|--3--------3--5--------3--|
-----0--0-----0--------0--|--------------------------|--------------------------|


  E  E  E  E  E  E  E  E     E  E  E  E  E  E  E  E     E  E  E  E  E  E  E  E   
--------------------------|--------------------------|--------------------------|
--------------------------|--------------------------|--------------------------|
--5--------5-----5--5-----|--5--------5-----5--5-----|--3--3--3--3--3--3--3--2--|
-----0--0-----0--------0--|-----0--0-----0--------0--|--------------------------|


  E  E  E  E  E  E  E  E     E  E  E  E  E  E  E  E     E  E  E  E  E  E  E  E   
--------------------------|--------------------------|--------------------------|
-----3--2--------5--4-----|--------------------------|--------------------------|
--3--------3--5--------3--|--5--------5-----5--5-----|--5--------5-----5--5-----|
--------------------------|-----0--0-----0--------0--|-----0--0-----0--------0--|


  E  E  E  E  E  E  E  E     E  E  E  E  E  E   Q        Q    Q    Q    Q     
--------------------------|---------------------------|----------------------|
--------------------------|---------------------------|----------------------|
--3--3--3--3--3--3--3--2--|--3--3--3--3--3--3--10\----|----------------------|
--------------------------|---------------------------|--0----0----0----0----|


  Q    Q    Q    Q       W                   E  E  E  E  Q    Q     
----------------------|-------------------|------------------------|
----------------------|-------------------|------------------------|
----------------------|--3----------------|--L---------------------|
--0----0----0----0----|-------------------|-----2--2--2--3----4----|


  E  E  E  E   H                                          
--------------------------------------------------------||
--------------------------------------------------------||
--------------------------------------------------------||
--5--5--L--L\-------------------------------------------||




Duration Legend
---------------
W - whole
H - half
Q - quarter
E - 8th
S - 16th
T - 32nd
X - 64th
. - note dotted
|-n-|  - n-tuplets


Tablature Legend
----------------
L - tied note
x - dead note
g - grace note
(n) - ghost note
> - accentuded note
NH - natural harmonic
AH - artificial harmonic
TH - tapped harmonic
SH - semi harmonic
PH - pitch harmonic
h - hammer on
p - pull off
b - bend
br - bendRelease
pb - preBend
pbr - preBendRelease
brb - bendReleaseBend
\n/ - tremolo bar dip
\n - tremolo bar dive
-/n - tremolo bar Release up
/n\ - tremolo bar inverted dip
/n - tremolo bar return
-\n - tremolo bar Release down
S - shift slide
s - legato slide
/ -  slide into from below or out of upwards
\ -  slide into from above or out of downwards
~ - vibrato
W - wide vibrato
tr - trill
TP - tremolo picking
T - tapping
S - slap
P - pop
< - fade in
^ - brush up
v - brush down





Comments


Popular Dangerous Toys tabs & chords
Scared Bass Tabs
Teas'n, Pleas'n Bass Tabs
New Anger Tabs
Promise The Moon Tabs
Queen Of The Nile Tabs
Scared Tabs
Sportn A Woody Intro Tabs
Teas'n, Pleas'n Tabs
Teasin Pleasin Tabs
Teasn Pleasn 1 Tabs


Song lyrics



↑ Back to top | Tablatures and chords are parodies/interpretations of the original songs. You may use it for private study, scholarship, research or language learning purposes only
© 2014 AZChords.com Contact us | Privacy policy | DMCA | Add/correct tabs | Request tabs | Top 50 tabs