>
 >
Promise The Moon

Promise The Moon Guitar Tabs

Dangerous Toys - Promise The Moon chords, tabs, tablatures, lyrics

Guitar lessons | Add/correct | Request | Top 50 tabs Artists:  A B C D E F G H I J K L M N O P Q R S T U V W X Y Z 0-9

Promise The Moon Guitar Tabs – Dangerous Toys

CD, Sheet music, Poster

Do you like Promise The Moon? Share with your friends now
Tabs
-----------------------------------------------------------------------
                             PROMISE THE MOON  Dangerous Toys
-----------------------------------------------------------------------

I saw there were no versions of this song available, and it's not too difficult,
so this is the first draft, and I'm working on the solo right now.  Enjoy!

Tuning: Standard

Riff 1 (Acoustic)

  A7sus4           A7
e|---------0----------------0---------------0-------0(0)-------------|
B|------3----3-----------2----2----------3----3-----3p2--------------|
G|----0--------0-------0--------0------0--------0---0(0)-------------|
D|--2----------------2---------------2--------------2(2)-------------|
A|0----------------0---------------0----------------0(0)-------------|
E|-------------------------------------------------------------------|

Riff 2

   D    DMaj7  D7                     G   A(sus)A   D
e|-2----2------2----------------------3---0-0---0---2-----------------|
B|-3----2------1----------------------3---2-3---2---3-----------------|
G|-2----2------2--------0-------------0---2-2---2---2-----------------|
D|-0----0------0------4---4---4---4---0---2-2---2---0------0----------|
A|------------------2-------2---0-----2---0-0---0--------2---2---2---0|
E|------------------------------------3----------------3-------3---2--|
  
Riff 3

   Em   A       X2  
e|-0----0---------|-0---0-0--0----------|
B|-0----2---------|-0---2-3--5----------|
G|-0----2---------|-0---2-2--0----------|
D|-2----2---------|-2---2-2--2----------|
A|-2----0---------|-2---0-0--0----------|
E|-0--------2b3r2-|-0-------------------|

Riff 2a (Distortion)

e|----------------------------------------------------|
B|----------------------------------------------------|
G|7--7-7--7-7--7-7--7-5--5-5--5------0----------------|
D|7--7-7--7-7--7-7--7-4--4-4--4----4---4---4---4------|
A|5--5-5--5-4--4-4--4-5--5-5--5--2-------2---0--------|
E|----------------------------------------------------|
       * * * * * * * 
e---------------------------------|-------------------|
B|----------------------------------------------------|
G|---------------------7--7-7--7----------------------|
D|-5--5-5--5-7--7-7--7-7--7-7--7-----0----------------|
A|-5--5-5--5-7--7-7--7-5--5-5--5---2---2---2---0------|
E|-3--3-3--3-5--5-5--5-----------3-------3---2--------|
                                 * * * * * * * *        
Riff 3a
                       X2
e|-----------------------|--------------(0)----------|
B|-----------------------|---------0--3--------------|
G|-----------2--2-2------|---------2--2--2-----------|
D|-2--2-2--2-2--2-2------|-2--2-2--2--2--2-----------|
A|-2--2-2--2-0--0-0------|-2--2-2--0--0--0-----------|
E|-0--0-0--0--------2b3r2|-0--0-0--------------------|

Riff 4

e|--------------------------------------------------------------------|
B|--------------------------------------------------------------------|
G|7--7-7--7------------2--2-2--2--7---7----4--4-4--4------------------|
D|7--7-7--7--2--2-2--2-2--2-2--2--7---7----4--4-4--4-5--5-5--5-7------|
A|5--5-5--5--2--2-2--2-0--0-0--0--5---5-0--2--2-2--2-5--5-5--5-7------|
E|-----------0--0-0--0-------------------------------3--3-3--3-5------|

Riff 4 (Solo Rhythm)
Riff 3a 
Riff 4
Riff 1


| /  slide up
| \  slide down
| h  hammer-on
| p  pull-off
| ~  vibrato
| N  natural harmonic
| x  Mute note
| b  Bend note
| r  Release bend
| *  Palm Mute

Thats all of it for now.  I'm tabbing the solo as we speak, and if you have
=======================================================================





Comments


Popular Dangerous Toys tabs & chords
Scared Bass Tabs
That Dog Bass Tabs
Best Of Friends Tabs
New Anger Tabs
Queen Of The Nile Tabs
Scared Tabs
Sportn A Woody Intro Tabs
Teas'n, Pleas'n Tabs
Teasin Pleasin Tabs
That Dog Tabs


Song lyrics



↑ Back to top | Tablatures and chords are parodies/interpretations of the original songs. You may use it for private study, scholarship, research or language learning purposes only
© 2014 AZChords.com Contact us | Privacy policy | DMCA | Add/correct tabs | Request tabs | Top 50 tabs