>
 >
Subject To Setback

Subject To Setback Guitar Tabs

Danger Is My Middle Name - Subject To Setback chords, tabs, tablatures, lyrics

Guitar lessons | Add/correct | Request | Top 50 tabs Artists:  A B C D E F G H I J K L M N O P Q R S T U V W X Y Z 0-9

Subject To Setback Guitar Tabs – Danger Is My Middle Name

CD, Sheet music, Poster

Do you like Subject To Setback? Share with your friends now
Tabs
subject to setback
         a deep breath of autumn's...
e	|---------------------------------------------------------|
B	|---------------------------------------------------------|
G	|---------------------------------------------------------|
D	|--3-2-3-5-7----5----3----3-2-3-5-7----5----3-------------|
A	|--3-2-3-5-7----5----3----3-2-3-5-7----5----3-------------|
E	|--3-2-3-5-7777-5555-3333-3-2-3-5-7777-5555-3333----------|

e	|-00-00----00-00----00-00----0----------------------------|
B	|-11-11----11-11----11-11----1----------------------------|
G	|-22-00----22-00----22-00----0----------------------------|
D	|-22-22-55-22-22-33-22-22-33-2----------------------------|
A	|-00-33-55-00-33-33-00-33-33-3----------------------------|
E	|-------55-------33-------33------------------------------|

         Do you wanna dance...
e	|-00000---------------------------------------------------|
B	|-11111---------------------------------------------------|
G	|-22222-------55555-------------------55555---------------|
D	|-22222-33333-55555-55555-77777-33333-55555-5-------------|
A	|-00000-33333-33333-55555-77777-33333-33333-5-------------|
E	|-------33333-------55555-77777-33333-------5-------------|
         Tease me...(play fast take a little pause between each switch, strum up and down)
e	|---------------------------------------------------------|
B	|---------------------------------------------------------|
G	|-------------55555-------------------55555---------------|
D	|-77777-33333-55555-55555-77777-33333-55555-55555---------|
A	|-77777-33333-33333-55555-77777-33333-33333-55555---------|
E	|-77777-33333-------55555-77777-33333-------55555---------|

         Riff after chorus:
e	|---------------------------------------------------------|
B	|---------------------------------------------------------|
G	|---------------------------------------------------------|
D	|-7777-10101010-3333-5555-7777-10101010-3333-5555---------|
A	|-7777-10101010-3333-5555-7777-10101010-3333-5555---------|
E	|-7777-10101010-3333-5555-7777-10101010-3333-5555---------|

         Heres the part where you spill your guts for me...
e	|---------------------------------------------------------|
B	|---------------------------------------------------------|
G	|---------------------------------------------------------|
D	|-7777-10101010-3333-5555-7777-10101010-3333-5555---------|
A	|-7777-10101010-3333-5555-7777-10101010-3333-5555---------|
E	|-7777-10101010-3333-5555-7777-10101010-3333-5555---------|

         Panties in a twist. youve gatta look your (play the last 3's) best
e	|---------------------------------------------------------|
B	|---------------------------------------------------------|
G	|---------------------------------------------------------|
D	|-7777-10101010-3333-5555-33-33-33-33-3-3-----------------|
A	|-7777-10101010-3333-5555-33-33-33-33-3-3-----------------|
E	|-7777-10101010-3333-5555-33-33-33-33-3-3-----------------|

         Do you wanna dance...
e	|-00000---------------------------------------------------|
B	|-11111---------------------------------------------------|
G	|-22222-------55555-------------------55555---------------|
D	|-22222-33333-55555-55555-77777-33333-55555-5-------------|
A	|-00000-33333-33333-55555-77777-33333-33333-5-------------|
E	|-------33333-------55555-77777-33333-------5-------------|
         Tease me...(play fast take a little pause between each switch, strum up and down)
e	|---------------------------------------------------------|
B	|---------------------------------------------------------|
G	|-------------55555-------------------55555---------------|
D	|-77777-33333-55555-55555-77777-33333-55555-55555---------|
A	|-77777-33333-33333-55555-77777-33333-33333-55555---------|
E	|-77777-33333-------55555-77777-33333-------55555---------|

         Kill me nowx4 (play the riff once... then sing)
e	|---------------------------------------------------------|
B	|---------------------------------------------------------|
G	|---------------------------------------------------------|
D	|--33333333-55555555-33333333-55555555--------------------|
A	|--33333333-55555555-33333333-55555555--------------------|
E	|--33333333-55555555-33333333-55555555--------------------|
         (The last) kill me now (fourth time saying it)
e	|----------------------------------------------|
B	|----------------------------------------------|
G	|----------------------------------------------|
D	|--33333333-55555555-33-33-33-33-3-3-----------|
A	|--33333333-55555555-33-33-33-33-3-3-----------|
E	|--33333333-55555555-33-33-33-33-3-3-----------|

         (during solo)
e	|--------------------------------------------------------|
B	|--------------------------------------------------------|
G	|-------------55555-------------------55555--------------|
D	|-77777-33333-55555-55555-77777-33333-55555-55555--------|
A	|-77777-33333-33333-55555-77777-33333-33333-55555--------|
E	|-77777-33333-------55555-77777-33333-------55555--------|

e	|-----------------------------------------------------------|
B	|-----------------------------------------------------------|
G	|-------------55555-------------------55555-----------------|
D	|-77777-33333-55555-55555-77777-33333-55555-55555-33333333--|
A	|-77777-33333-33333-55555-77777-33333-33333-55555-33333333--|
E	|-77777-33333-------55555-77777-33333-------55555-33333333--|

         Do you wanna dance...(Palm mute)
e	|-00000--------------------------------------------------|
B	|-11111--------------------------------------------------|
G	|-22222-------55555-------------------55555--------------|
D	|-22222-33333-55555-55555-77777-33333-55555-5------------|
A	|-00000-33333-33333-55555-77777-33333-33333-5------------|
E	|-------33333-------55555-77777-33333-------5------------|

         Do you wanna dance... (soft playing)
     |---------------------------------------------------------|
B    |---------------------------------------------------------|
G    |-------------55555-------------------55555---------------|
D    |-77777-33333-55555-55555-77777-33333-55555-5-------------|
A    |-77777-33333-33333-55555-77777-33333-33333-5-------------|
E    |-77777-33333-------55555-77777-33333-------5-------------|


         Do you wanna dance... (play hard)
     |---------------------------------------------------------|
B    |---------------------------------------------------------|
G    |-------------55555-------------------55555---------------|
D    |-77777-33333-55555-55555-77777-33333-55555-5-------------|
A    |-77777-33333-33333-55555-77777-33333-33333-5-------------|
E    |-77777-33333-------55555-77777-33333-------5-------------|


         Tease me...(say "tease me... tell me not to make a sound three times. strum up and down)
e	|--------------------------------------------------------|
B	|--------------------------------------------------------|
G	|-------------55555-------------------55555--------------|
D	|-77777-33333-55555-55555-77777-33333-55555-55555--------|
A	|-77777-33333-33333-55555-77777-33333-33333-55555--------|
E	|-77777-33333-------55555-77777-33333-------55555--------|
         This wont last forever, this wont last forever... kill me now
     |-----------------------------------------------|
B    |-----------------------------------------------|
G    |--------------55555----------------------------|
D    |--77777-33333-55555-55555--3-------------------|
A    |--77777-33333-33333-55555--3-------------------|
E    |--77777-33333-------55555--3-------------------|





Comments


Popular Danger Is My Middle Name tabs & chords
Heroes Bass Tabs
New Friend Regrets Chords
Goodbye Skyline Tabs
Revenge On The Radio Tabs
Sidecar One Intro Tabs
New Friend Regrets Ukulele


Song lyrics



↑ Back to top | Tablatures and chords are parodies/interpretations of the original songs. You may use it for private study, scholarship, research or language learning purposes only
© 2014 AZChords.com Contact us | Privacy policy | DMCA | Add/correct tabs | Request tabs | Top 50 tabs