» » »

Sidecar One Tabs (ver.1)

Artists:  A B C D E F G H I J K L M N O P Q R S T U V W X Y Z # 

Sidecar One Tabs (ver.1)

Danger Is My Middle Name
Rating:
2/5 (2 votes)

Hard to play? Try these video lessons and learn fast.
                (Intro)
-------------------------------------------------------------------------------
                             Sidecar One - DIMMN
-------------------------------------------------------------------------------

Tuning:

e|------------------------------------------------------------------------------|
B|------------------------------------------------------------------------------|
G|-00---4--6--8--6--10-8---0--6--8--6--13---------------------------------------|
D|-00---x--x--x--x--x--x---0--x--x--x---x---------------------------------------|
A|-00---2--4--6--4--8--6---0--4--6--4--11---------------------------------------|
E|------------------------------------------------------------------------------|


e|-----------------------------------------------------------------------------|
B|-----------------------------------------------------------------------------|
G|-00---4--6--8--6--10-8---0--6--8---13----------------------------------------|
D|-00---x--x--x--x--x--x---0--x--x---x-----------------------------------------|
A|-00---2--4--6--4--8--6---0--4—-6---11----------------------------------------|
E|-----------------------------------------------------------------------------|
  Sorry this is all i have for now
            
Hard to play? Try these video lessons and learn fast. | Correct




comments powered by Disqus
↑ Back to top | Tablatures and chords are parodies/interpretations of the original songs. You may use it for private study, scholarship, research or language learning purposes only