» » »

Danger Is My Middle Name, Heroes Bass tabs (ver.1)

Artists:  A B C D E F G H I J K L M N O P Q R S T U V W X Y Z # 

Heroes Bass tabs (ver.1)

Danger Is My Middle Name Tabs
 Rating:
4/5 (4 votes)
Heroes lessons Tabs too difficult? Try these video lessons and learn fast
1
                
These guys are signed to World Record Productions and that is the closest thing I could 

To keep this song in standard tuning, I played some notes an octave higher(the intro 
but these are all 100% the right notes.  Im pretty sure the bassist plays a 5 string

Intro - i wrote this an octave higher so it could be played on 4 strings

--------------------------------|
--------------------------------|
-666-99-6666-6---666-99-6666----|
---------------9-------------9--| x3

------------------------------------|
------------------------------------|
-666-99-6666-6----------------------|
---------------9----7777777-9999999-|


Verse

------------------------------------------|
------------------------------------------|
---9--9---9---9--6-9--66-9---9---9--------|
-7--77--7--77--------------9---99---------|  x2

------------------------------------------|
------------------------------------------|
-----------6666---------------------------|
-777777777------9999----------------------|  x2

----------------|
----------------|
----------------|
-7~~~~~~~~-6----|


Chorus

----------------------------------------|
----------------------------------------|
--------------------666-x-66666-6-------|
-77777777--99999999---------------9-----| x4

*intro riff - you only play it once*
*verse*
*chorus*
*intro riff - you play twice then bridge*


Bridge - 1:54 - guitar plays intro riff at first, you play this

-----------------------------|
-----------------------------|
-------------6~----9~--------|
--7~----6~-------------------| x2


--------------------------------------|
--------------------------------------|
---------------666666--9999999--------|
-777777-666666------------------------| x4

*chorus riff x8*
*intro riff*


End on

----------------------------|
----------------------------|
-------------66-------------|
-7777--9999-----------------|
            
Submit corrections

comments powered by Disqus
↑ Back to top | Danger Is My Middle Name Bass for Heroes. Lyrics for acoustic guitar and electric guitar. 1 Tablatures and chords are parodies/interpretations of the original songs. You may use it for private study, scholarship, research or language learning purposes only