» » »

Goodbye Skyline Tabs (ver.1)

Artists:  A B C D E F G H I J K L M N O P Q R S T U V W X Y Z # 

Goodbye Skyline Tabs (ver.1)

Danger Is My Middle Name
Rating:
0/5 (0 votes)

Hard to play? Try these video lessons and learn fast.
                Goodbye Skyline - DIMMN
Drop D tuning.
Full Song
Enjoy

         The darkness is disrupted....
e    |----------------------------------------------------------|
B    |----------------------------------------------------------|
G    |----------------------------------------------------------|
D    |-0-0-00-4-44-44440-5-5-55-5-55-55550----------------------|
A    |-0-0-00-4-44-44440-5-5-55-5-55-55550----------------------|
E    |-0-0-00-4-44-44440-5-5-55-5-55-55550----------------------|

         Tendered busted lips....
e    |-----------------------------------------------------------------------------------|
B    |-----------------------------------------------------------------------------------|
G    |-----------------------------------------------------------------------------------|
D    |-0-0-00-4-44-44440-0-0-00-5-55-55550-0-0-00-4-44-44440-5-55-5-55-55550-------------|
A    |-0-0-00-4-44-44440-0-0-00-5-55-55550-0-0-00-4-44-44440-5-55-5-55-55550-------------|
E    |-0-0-00-4-44-44440-0-0-00-5-55-55550-0-0-00-4-44-44440-5-55-5-55-55550-------------|

         The darkness is dispersed....
e    |----------------------------------------------------------|
B    |----------------------------------------------------------|
G    |----------------------------------------------------------|
D    |-0-0-00-4-44-44440-5-5-55-5-55-55550----------------------|
A    |-0-0-00-4-44-44440-5-5-55-5-55-55550----------------------|
E    |-0-0-00-4-44-44440-5-5-55-5-55-55550----------------------|

         Strike my heart with stakes....
e    |-----------------------------------------------------------------------------------|
B    |-----------------------------------------------------------------------------------|
G    |-----------------------------------------------------------------------------------|
D    |-0-0-00-4-44-44440-0-0-00-5-55-55550-0-0-00-4-44-44440-5-55-5-55-55550-------------|
A    |-0-0-00-4-44-44440-0-0-00-5-55-55550-0-0-00-4-44-44440-5-55-5-55-55550-------------|
E    |-0-0-00-4-44-44440-0-0-00-5-55-55550-0-0-00-4-44-44440-5-55-5-55-55550-------------|

         Goodbye Skyline...
e	|-------------------------------------------------------|
B	|-------------------------------------------------------|
G	|-------------------------------------------------------|
D	|-0000-44444444-55555555555-0000-44444444-55555555555---|
A	|-0000-44444444-55555555555-0000-44444444-55555555555---|
E	|-0000-44444444-55555555555-0000-44444444-55555555555---|
          Your Lies...
e	|------------------------------------------------------|
B	|------------------------------------------------------|
G	|------------------------------------------------------|
D	|-0000-44444444-55555555555-0000-44444444-55555555555--|
A	|-0000-44444444-55555555555-0000-44444444-55555555555--|
E	|-0000-44444444-55555555555-0000-44444444-55555555555--|

         The darkness hesitates to break the silence....
e    |----------------------------------------------------------|
B    |----------------------------------------------------------|
G    |----------------------------------------------------------|
D    |-0-0-00-4-44-44440-5-5-55-5-55-55550----------------------|
A    |-0-0-00-4-44-44440-5-5-55-5-55-55550----------------------|
E    |-0-0-00-4-44-44440-5-5-55-5-55-55550----------------------|

         I'm present but denied ....
e    |-----------------------------------------------------------------------------------|
B    |-----------------------------------------------------------------------------------|
G    |-----------------------------------------------------------------------------------|
D    |-0-0-00-4-44-44440-0-0-00-5-55-55550-0-0-00-4-44-44440-5-55-5-55-55550-------------|
A    |-0-0-00-4-44-44440-0-0-00-5-55-55550-0-0-00-4-44-44440-5-55-5-55-55550-------------|
E    |-0-0-00-4-44-44440-0-0-00-5-55-55550-0-0-00-4-44-44440-5-55-5-55-55550-------------|

         Goodbye Skyline...
e	|-------------------------------------------------------|
B	|-------------------------------------------------------|
G	|-------------------------------------------------------|
D	|-0000-44444444-55555555555-0000-44444444-55555555555---|
A	|-0000-44444444-55555555555-0000-44444444-55555555555---|
E	|-0000-44444444-55555555555-0000-44444444-55555555555---|

         If i could spend the night...
e	|-------------------------------------------------------|
B	|-------------------------------------------------------|
G	|-------------------------------------------------------|
D	|-000-444-555-555-000-444-555-555-000-444-5---0-4--55---|
A	|-000-444-555-555-000-444-555-555-000-444-5---0-4--55---|
E	|-000-444-555-555-000-444-555-555-000-444-5---0-4--55---|

         Goodbye Skyline...
e	|-------------------------------------------------------|
B	|-------------------------------------------------------|
G	|-------------------------------------------------------|
D	|-0000-44444444-55555555555-0000-44444444-55555555555---|
A	|-0000-44444444-55555555555-0000-44444444-55555555555---|
E	|-0000-44444444-55555555555-0000-44444444-55555555555---|
         Your Lies...
e	|------------------------------------------------------|
B	|------------------------------------------------------|
G	|------------------------------------------------------|
D	|-0000-44444444-55555555555-0000-44444444-55555555555--|
A	|-0000-44444444-55555555555-0000-44444444-55555555555--|
E	|-0000-44444444-55555555555-0000-44444444-55555555555--|

         end...
e	|-------------------------------------------------------|
B	|-------------------------------------------------------|
G	|-------------------------------------------------------|
D	|-555-4-0-----------------------------------------------|
A	|-555-4-0-----------------------------------------------|
E	|-555-4-0-----------------------------------------------|

Thanks for looking and learning... H l R E D
            
Hard to play? Try these video lessons and learn fast. | Correct




comments powered by Disqus
↑ Back to top | Tablatures and chords are parodies/interpretations of the original songs. You may use it for private study, scholarship, research or language learning purposes only