» » »

The Riddle Tabs (ver.1)

Artists:  A B C D E F G H I J K L M N O P Q R S T U V W X Y Z # 

The Riddle Tabs (ver.1)

Danger Danger
Rating:
0/5 (0 votes)

Hard to play? Try these video lessons and learn fast.
                | /  slide up
| \  slide down
| h  hammer-on
| p  pull-off
| ~  vibrato
| +  harmonic
| x  Mute note

e|-7----------------17------------------21------------------11----------1-|
B|--8-------------16--18--------------22--20--------------12--10-------2--|
G|---9----------15------19----------23------19----------13------9-----3---|
D|----10------14----------20------24----------18------14---------8---4----|
A|------11--13--------------21--23--------------17--15------------7-5-----|
E|--------12------------------22------------------16---------------6------|

e|-0--3-3-----3-3------7-7-7---7-7---6-6--1-----4-----5-----6-----7-------|
B|-0--3-------3-3------7-7-7---7-7---6-5---2---3-2---3-4---3-5---4--------|
G|-7--0-------0-0-x----6-6-5---7-7---7-5----3-2---3-2---3-4---4-5---------|
D|-7--0---0-0-----x----5-5-5---6-5---5-4-----4-----4-----5-----6----------|
A|-9--2---2-2-------------------------------------------------------------|
E|-9--3---3-3-------------------------------------------------------------|

e|-9---------9-7-------------------------2h3h5-9h10h11-2h3h4---------5-7--|
B|--9-------9-6------12-----22---------7-----------------------------5-7--|
G|---9-----9----8---6---7-----23---5----7----------------------------6-9--|
D|----9---9-------4----5---6----9-----7------------------------------5-7--|
A|-----9-9-------3-------8-------6--4--------------------------------8-8--|
E|------9----------1------9------------------------------------------9-9--|

e|-14~~--------------------0--3-4-0--3-4-0--3-4-4-3-2-0--5-6-0--5-6-------|
B|-----16~~---------------------------------------------------------------|
G|---------18~~-----------------------------------------------------------|
D|-------------20~~-------------------------------------------------------|
A|-----------------22~~---------------------------------------------------|
E|---------------------24~~-----------------------------------------------|
            
Hard to play? Try these video lessons and learn fast. | Correct




comments powered by Disqus
↑ Back to top | Tablatures and chords are parodies/interpretations of the original songs. You may use it for private study, scholarship, research or language learning purposes only