>
 >
Naughty Naughty

Naughty Naughty Guitar Tabs

Danger Danger - Naughty Naughty chords, tabs, tablatures, lyrics

Guitar lessons | Add/correct | Request | Top 50 tabs Artists:  A B C D E F G H I J K L M N O P Q R S T U V W X Y Z 0-9

Naughty Naughty Guitar Tabs – Danger Danger

CD, Sheet music, Poster

Do you like Naughty Naughty? Share with your friends now
Tabs
|------------------------------|
|------------------------------|    intro/main riff
|------------------------------|
|----5-----3---5---3-----3---1-|
|----------------1---1-3---3---|
|--3---3-3---3-----------------|

|--------|
|------6-|
|----5-5-|
|--3-5-3-|                end intro  
|--3-3---|
|--1-----|

|--------|
|----6---|
|----5-5-|              verse chords
|--5-3-5-|
|--5---3-|
|--3-----|

|----------|
|----------|
|--8-7-3---|            1st part of pre-chorus
|--8-7-3-3-|
|--6-5-1-3-|
|--------1-|

|-----------------------------------|
|-----------------------------------|
|--------------3---5-5-3-8-7-----10-|     2nd part of pre-chorus
|--------------3---5-5-3-8-7---8-10-|
|--------------1---3-3-1-6-5---8-8--|
|--0-1-2-3-3-3---3-------------6----|

|-------------------------------------|
|-------------------------------------|
|--------3-------5-------3------------|    chorus
|--------3-------5-------3------------|
|--------1-------3-------1---3*-------|
|--3-3-3---3-3-3---3-3-3---1----0-1-2-|

|------------|
|--6-6-6-6-8-|
|--5-5-5-5-7-| end chorus
|--3-3-3-3-5-|
|------------|
|------------|

|--t13p7h10-t13p7h10-t13p7h10-t12p6h9-t12p6h9-t12p6h9-t11p5h8-t11p5h8p5-|
|-----------------------------------------------------------------------|
|-----------------------------------------------------------------------|  
|-----------------------------------------------------------------------|  
|-----------------------------------------------------------------------|
|-----------------------------------------------------------------------|

|-----------------------|
|--15b17--13h-15p13-----|
|-------------------15~-|       fill during verse
|-----------------------|
|-----------------------|
|-----------------------|

|----------------------------------------------------|
|----------------------------------------------------|
|--21\-----------------12b13-12b13-12b13-12b13-12-10~|
|-----1/12--10-12-10---------------------------------|
|----------------------------------------------------|
|----------------------------------------------------|

|-----------------------------------------------------------|
|-----------------------------------------------------------|
|-----10h12p10----10h12p10----10h12p10----10h12p10----10/12-|
|--12----------12----------12----------12----------10-------|
|-----------------------------------------------------------|
|-----------------------------------------------------------|

|---------10-13-10-|
|--13b15-----------|  x9
|------------------|
|------------------|
|------------------|
|------------------|

|--13b15--18-17-------21b23-----|
|---------------18-----------18-|
|------------------17-----------|
|-------------------------------|
|-------------------------------|
|-------------------------------|

that's my tab, hope you people like it
one of the best songs ever





Comments


Popular Danger Danger tabs & chords
Bang Bang Bass Tabs
Bang Bang 1 Bass Tabs
Don't Walk Away 1 Bass Tabs
Feels Like Love Chords
Find Your Way Back Home Chords
I Still Think About You Tabs
The Riddle Tabs
Bang Bang Ukulele
Dont Walk Away Ukulele
Rock America Ukulele


Song lyrics



↑ Back to top | Tablatures and chords are parodies/interpretations of the original songs. You may use it for private study, scholarship, research or language learning purposes only
© 2014 AZChords.com Contact us | Privacy policy | DMCA | Add/correct tabs | Request tabs | Top 50 tabs