>
 >
Monkey Business

Monkey Business Guitar Tabs

Danger Danger - Monkey Business chords, tabs, tablatures, lyrics

Guitar lessons | Add/correct | Request | Top 50 tabs Artists:  A B C D E F G H I J K L M N O P Q R S T U V W X Y Z 0-9

Monkey Business Guitar Tabs – Danger Danger

CD, Sheet music, Poster

Do you like Monkey Business? Share with your friends now
Tabs
---------------------------------------------------------------------------
                   Danger Danger: Monkey Business
---------------------------------------------------------------------------

Tuning: Standard


Legends:
         /  slide up          \  slide down
         h  hammer-on         p  pull-off
         p+ pinch harmoic     +  harmonic
         x  mute note         b  bend
         *  pick at bend      ~  vibrato
         r  release bend      .  palm muted notes

  riff A:                                                             End A
E|-------------------------------------------------------------------------|
B|----------------------9-109----9---------------------------9-109----9-10-|
G|-2(2)/x-14-14(14)\x---9-9-9----9-11---2(2)/x-14-14(14)\x---9-9-9----9-9--|
D|-2(2)/x-14-14(14)\x---------12---12---2(2)/x-14-14(14)\x---------12------|
A|-0------0--0--------------------------0------0--0------------------------|
E|-------------------------------------------------------------------------|

             riff B:  ...  .        ...   .         ...    .      ... End B
E|-----------------------------------------------------------------------.-|
B|-------------------------------------------------------------------------|
G|-- Repeat ---2----2-----2---2----2-----2-----1h2-2-----2---1h2-2-----2---|
D|-- riff A ---2----2-----2---2----2-----2-----2---2-----2---0---0-0-0-0-0-|
A|-------------0----0-0-0-0-0-0----0-0-0-0-0---0-----0-0---0-0-------------|
E|-------------------------------------------------------------------------|

  riff C: ...   .        ...   .         ...   .        . End C
E|-------------------------------------------------------------------------|
B|-------------------------------------------------------------------------|
G|-2----2-----2---2----2-----2-----1h2-2-----2---1h2-2------------ Repeat -|
D|-2----2-----2---2----2-----2-----2---2-----2---0---0------------ riff B -|
A|-0----0-0-0-0-0-0----0-0-0-0-0---0-----0-0---0-0------0---------- 2 x ---|
E|---------------------------------------------------------15\x------------|

  riff D:
E|-3-------------------------------------------0-----0----3----------------|
B|-3--2-2-2-0----7--8-8-8-7---------3-3-2------0-----0----3--2-2-2-0----7--|
G|-0--2-2-2-0----7--7-7-7-7----2----2-2-2-----------------0--2-2-2-0----7--|
D|-0-------------7-------------2----4-4-2----2------------0-------------7--|
A|-2-------------5-------------0--0----------2---2-2------2-------------5--|
E|-3-----------------------------------------0---0-0------3----------------|

           .  .   .  .                End D
E|-------------------------------------------------------------------------|
B|-8-8-8-7-----------------------------------------------------------------|
G|-7-7-7-7----------------------------------- Repeat -- Repeat -- Repeat --|
D|-----------------------------2------------- riff A -- riff B -- riff C --|
A|-----------7---5---4---2-------------------- 2 x ------------------------|
E|---------0---0---0---0---0-3b--3b0---0-3b--------------------------------|


E|-------------------------------------------------------------------------|
B|-------------------------------------------------------9-109----9--------|
G|-- Repeat -- Repeat -- Repeat ----2(2)/x-14-14(14)\x---9-9-9----9-11---2-|
D|-- riff B -- riff D -- riff A ----2(2)/x-14-14(14)\x---------12---12---2-|
A|--- 2 x --------------------------0------0--0--------------------------0-|
E|-------------------------------------------------------------------------|

                                 Bridge 1:
E|-------------------------------------------------------------------------|
B|--------------------9-109----9-------------------------------------------|
G|(2)/x-14-14(14)\x---9-9-9----9-------------------------------------------|
D|(2)/x-14-14(14)\x---------12----7-8-9------------------------------------|
A|--------------------------------5-6-7---/7--5--4--2---------/7--5--4--2--|
E|---------------------------------------0--00-00-00---0-3br00--00-00-00---|

                                      Solo:  p+
E|-------------------------------------------------------------------------|
B|------------------------3-----3-3---3------5~~---------------------------|
G|------------------------0-----2-2---2--4-6-----2--2-4/6------------------|
D|------------------------0-----0-0---0--------------------6-7/9--4-6/7----|
A|--------/7--5--4--2-----2---------------------------------------------7~~|
E|-0-3br00--00-00-00--0-2-3------------------------------------------------|

        h p ---------------------->                             -------------|      *
E|--------------------------109-0-70-----------------17--19(19)b-19-19b-19---|
B|-------------0-109-0-75-0----------------------x/17--17--------------------|
G|-----------------------------------9br(9)~~--------------------------------|
D|-----7-9-7-----------------------------------------------------------------|
A|-7-9-----------------------------------------------------------------------|
E|---------------------------------------------------------------------------|

       *  *
E|-19b-19-19r17---21b-19b-17------17--x/17~-17--------------------------19-|
B|-------------17------------17h19--17---------19b-19-17-19----------17----|
G|-------------------------------------------------------------16-18-------|
D|-------------------------------------------------------------------------|
A|-------------------------------------------------------------------------|
E|-------------------------------------------------------------------------|


                                                                Bridge 2:
E|-17---------------------------17-14--------------------------------------|
B|----19-17------------------14-------17-14--------------------------------|
G|----------18-16\14~--14-16----------------16-14\12~- Repeat -- Repeat ---|
D|---------------------------------------------------- riff D -- riff A ---|
A|---------------------------------------------------------------- 2x -----|
E|-------------------------------------------------------------------------|


E|-------------------------------------------------------------------------|
B|-------------------------------------------------------------------------|
G|-- Repeat ---------------------------------------------------------------|
D|-- riff A----(Fadeout)---------------------------------------------------|
A|---- 7x -----------------------------------------------------------------|
E|-------------------------------------------------------------------------|

============================================================================


only use this file for private study, or research.
----------------------------------------------------------------------------





Comments


Popular Danger Danger tabs & chords
Bang Bang 1 Bass Tabs
Turn It On Bass Tabs
Turn It On 1 Bass Tabs
Don't Walk Away Chords
Dont Break My Heart Again Chords
Feels Like Love 1 Chords
Find Your Way Back Home Chords
Rock America Chords
Find Your Way Back Home Ukulele
I Still Think About You Ukulele


Song lyrics



↑ Back to top | Tablatures and chords are parodies/interpretations of the original songs. You may use it for private study, scholarship, research or language learning purposes only
© 2014 AZChords.com Contact us | Privacy policy | DMCA | Add/correct tabs | Request tabs | Top 50 tabs