» » »

I Still Think About You Tabs (ver.1)

Artists:  A B C D E F G H I J K L M N O P Q R S T U V W X Y Z # 

I Still Think About You Tabs (ver.1)

Danger Danger
Rating:
5/5 (1 vote)

Hard to play? Try these video lessons and learn fast.
                Danger Danger- I Still Think About You
Half Step Down Eb Bb Gb Db Ab Eb

The other Chord tabs are good, if its easier to follow just add those to this, im 
mostly doing the solo.

Intro/ Verse
G D Dsus Cadd9 G

Pre-Chorus
D Cadd9  Em  D  Cadd9

Chorus
G D Cadd9 2x  G D Em C    G D Cadd9 

Pre-Solo
D Cadd9  D  Em  D Cadd9

GUITAR SOLO!
There is some little lick right before, sorry dont got it!
Other guitar Chorus Chords

E---------------------------------]-----------------------------------]
B---------------------------------]-----------------------------12-13-]
G--14b--14b--14br12---------------]-7-9-0-9-11-0-11-12-0-12-14--------]
D-------------------14/16-16br14--]-----------------------------------]
A---------------------------------]-----------------------------------]
E---------------------------------]-----------------------------------]


E---------------------------------------------------------]
B-15----15-17b--17b--17b--17b-17br15----------------------]
G----14------------------------------17-16p14/12/11-------]
D--------------------------------------------------12-----]
A---------------------------------------------------------]
E---------------------------------------------------------]


E--------------------------------------8-----8----7-------]
B--8-7-------------------------7-8-10b---10b---10---8-----]
G------7-5p4-5-7-5-7-5p4-5-7-9----------------------------]
D---------------------------------------------------------]
A---------------------------------------------------------]
E---------------------------------------------------------]

                                    Sweep This   
E--17b--17b-17-15-14------------------------15)-19b--19---]
B---------------------17br-17------------17---------------]
G-----------------------------------(-16------------------]
D---------------------------------------------------------]
A---------------------------------------------------------]
E---------------------------------------------------------]


Thats the Song! Have fun, turn it up, Rock Out!
            
Hard to play? Try these video lessons and learn fast. | Correct




comments powered by Disqus
↑ Back to top | Tablatures and chords are parodies/interpretations of the original songs. You may use it for private study, scholarship, research or language learning purposes only