» » »

Danger Danger, Bang Bang Tabs (ver.1)

Artists:  A B C D E F G H I J K L M N O P Q R S T U V W X Y Z # 

Bang Bang Tabs (ver.1)

Danger Danger Tabs
 Rating:
4/5 (4 votes)
Bang Bang lessons Tabs too difficult? Try these video lessons and learn fast
                Bang Bang – Danger Danger
Standard Tuning
Kickass song, enjoy it!

Bang! Bang!

Intro:

( A D G A  F# G G F# A ) 2x

e—12-14-15-14h15p14p12--12—15b17-15b17-15-14h15p14p12-----12-15b17-12--------|
B---------------------15-----------------------------15-15-------------------|
G----------------------------------------------------------------------------|
D----------------------------------------------------------------------------|
A----------------------------------------------------------------------------|
E----------------------------------------------------------------------------|

e—12-14-15-14h15p14p12--12—15b17-15b17-15-14h15p14p12------------------------|
B---------------------15-----------------------------15-15-14----------------|
G------------------------------------------------------------14-16-14--------|
D----------------------------------------------------------------------------|
A----------------------------------------------------------------------------|
E----------------------------------------------------------------------------|

G A G A

Verse:
         G                 A
It was a warm night on the south side of town
                 G                 A
They said they’d seen ya, You were sneakin’ around
       G                    A                     G          A
with a stranger, Girl these rumors are drivin’ me mad
       G                       A
All my good friends turn their face to the wall
          G                A
When they see me, what the hell’s goin’ on
     G               A                        G              A
am I so blind that I can’t see when I’m being had

Bridge:
B                A                 E           F#    G
I know it’s silly but girl I really thought we had a chance
G
I must’ve been crazy!

Chorus:
A    D     G      G    A
Bang Bang, what’s that sound
  F#          G            G    F#  A
I gave you my love and you shot me down
A    D     G      G  A
Bang Bang, you’re so cool
F#         G                   G  F# A
Playin’ a game, someday you’re gonna lose
F#    G      A     G     A
Bang! Bang!

Verse:
         G                A
Girl you told me you were not like the rest
         G                    A
Then you showed me now you’re failing the test
       G            A                       G               A
It was easy just an urge in the heat of the nite
       G                   A
I believed you, now that’s all in the past
        G                          A
Cause I made some mistakes but I’m learnin’ fast
               G                        A
Never put your heart on the line!
               G                        A
Never put your heart on the line!

Bridge:
B                A                 E           F#    G
I know it’s silly but girl I really thought we had a chance
G
I must’ve been crazy!

Chorus:
A    D     G      G    A
Bang Bang, what’s that sound
  F#          G            G    F#  A
I gave you my love and you shot me down
A    D     G      G  A
Bang Bang, you’re so cool
F#        G                    G  F#  A
Playin’ a game, someday you’re gonna lose

Solo:
B
A

Chorus:
A    D     G      G    A
Bang Bang, what’s that sound
  F#          G            G    F#  A
I gave you my love and you shot me down
A    D     G      G  A
Bang Bang, you’re so cool
F#         G                   G  F# A
Playin’ a game, someday you’re gonna lose

Fade out

Chords used:
A : x022xx
B : x244xx
D : xx023x
F#: 244xxx
E : 022xxx
G : 355xxx

Now some tricks !!!

At Verse 1:
       G                    A                     G                A
with a stranger, Girl these rumors are drivin’ me mad

                                            e-------------------------|
                                            B-------------------------|
                                            G---------------------22--|
                                            D----55-----5-4-2-----22--|
                                            A----55-----------3b4-00--|
                                            E----33---3---------------|

The same for Verse 2 at:
       G            A                       G                A
It was easy just an urge in the heat of the nite
                                       e-------------------------|
                                       B-------------------------|
                                       G---------------------22--|
                                       D----55-----5-4-2-----22--|
                                       A----55-----------3b4-00--|
                                       E----33---3---------------|

And at the Bridge:
      B                A                 E           F#    G
      I know it’s silly but girl I really thought we had a chance
e----------------------------------------------------------------|
B----------------------------------------------------------------|
G-----4----------------2-----------------------------------------|
D-----4----------------2-----------------2-----------4-----5-----|
A---0-2------------4-5-0-----------------2-----------4-----5-----|
E-2----------------------------------3-2-0-----------2-----3-----|

G
I must’ve been crazy!
            
Submit corrections

comments powered by Disqus
↑ Back to top | Danger Danger Tabs for Bang Bang. Lyrics for acoustic guitar and electric guitar. Tablatures and chords are parodies/interpretations of the original songs. You may use it for private study, scholarship, research or language learning purposes only