>
 >
Longer 2

Longer 2 Guitar Tabs

Dan Fogelberg - Longer 2 chords, tabs, tablatures, lyrics

Guitar lessons | Add/correct | Request | Top 50 tabs Artists:  A B C D E F G H I J K L M N O P Q R S T U V W X Y Z 0-9

Longer 2 Guitar Tabs – Dan Fogelberg

CD, Sheet music, Poster

Do you like Longer 2? Share with your friends now
ChordsChords v2Chords v3TabsTabs v2Tabs v3Ukulele
Gtr I (D G D G B D) - 'Acoustic Guitar'
Gtr II (D G D G B D) - 'Trumpet Solo'


 Intro
  Moderately Slow Q=79
  G       Am7       Gmaj7/B C         G       Am7       Gmaj7/B  C
 4/4
  Gtr I
  E E E E E E E E   E E E E E E E E   E E E E E E E E   E  E E E E  E E E
|-0-----0-------0-|-------0-------0-|-------0-------0-|------4-5------5---|
|-0-------1-------|-3-------5-------|-0-------1-------|-3--5----------5---|
|-----0-------0---|-----0-------0---|-----0-------0---|-------------5---5-|
|---0-------2-----|---4-------5-----|---0-------2-----|----------5------5-|
|-0-------2-------|-4-------5-------|-0-------2-------|-4------5----------|
|-----------------|-----------------|-----------------|-------------------|
  H       H         H       H         H       H         Q.     E Q.     E


  G       Am7       Gmaj7/B  Csus2
  E E E E E E E E   E  E E E E E E E
|-0-------------0-|------------------|
|-------0-1-------|-3--5-3-------3---|
|-----0-------0---|----------0-----0-|
|---0-------2-----|--------5---5-----|
|-0-------2-------|-4------5---------|
|-----------------|------------------|
  H       H         Q.     H       E


  Bb      Am7         G       C/G     D/G
  E E E E E E a E E   E E E E E  S  S E E
|-------------------|-----------------------||
|-3-1---1-----------|-------0-1-------3-----||
|-----3-------0h2-0-|-----0---0-------0-----||
|-----------0-------|---0-----2-(2)h4---4---||
|-3-------2---------|-0----------0----------||
|-------------------|-----------------------||
  H       H


   Verse
    G       Am7       Gmaj7/B C         G       Am7       Gmaj7/B C
    E E E E E E E E   E E E E E E E E   E E E E E E E E   E E E E E E E E
||--0-----0-------0-|-------0-------0-|-------0-------0-|-------0-------0--|
||o-0-------1-------|-3-------5-------|-0-------1-----0-|-3-------5--------|
||------0-------0---|-----0-------0---|-----0-------0---|-----0-------0----|
||----0-------2-----|---4-------5-----|---0-------2-----|---4-------5------|
||o-0-------2-------|-4-------5-------|-0-------2-------|-4-------5--------|
||------------------|-----------------|-----------------|------------------|
    H       H         H       H         H       H         H       H


  G       Am7       Gmaj7/B C
  E E E E E E E E   E E E E E E E E
|-------0-------0-|-------0-------0-|
|-0-------1-------|-3-------5-------|
|-----0-------0---|-----0-------0---|
|---0-------2-----|---4-------5-----|
|-0-------2-------|-4-------5-------|
|-----------------|-----------------|
  H       H         H       H


                      1.
  Bb      Am7         G       C/G     D/G
  E E E E E E a E E   E E E E E  S  S E E
|-------------------|------------------------||
|-3-1---1-----------|-------0-1-------3-----o||
|-----3-------0h2-0-|-----0---0-------0------||
|-----------0-------|---0-----2-(2)h4---4----||
|-3-------2---------|-0----------0----------o||
|-------------------|------------------------||
  H       H


                    Chorus
  2.
  G                  F/C     C         Eb/Bb   Bb           F/C     C
  E E E E E E E E    E E E E E E E E   E E E E E  E E E     E E E E E E E E
|---------5---5---||-------5---------|-------3------------|-------5---------|
|-------0-----0---||-6-------5-------|-4-------3----------|-6-------5-------|
|-----0-----0---0-||-----5-------5---|-----3------3-------|-----5-------5---|
|---0-------------||---7-------5---0-|---5----------3-----|---7-------5---0-|
|-0---------------||-5-------5-------|-3-------3------3S5-|-5-------5-------|
|-----------------||-----------------|--------------------|-----------------|
  W                  H       H         H       Q.     S S   H       H


  Eb/Bb   Bb           F/C     C         Eb/Bb   Bb        D7sus4  D7
  E E E E E  E E E     E E E E E E E E   E E E E E E E E   E E E E E E E E
|-------3------------|-------5---------|-------3---------|-----------------|
|-4-------3----------|-6-------5-------|-4-------3-------|-----3-------3---|
|-----3------3-------|-----5-------5---|-----3-------3---|---5---5---5---5-|
|---5----------3-----|---7-------5---0-|---5-------3---0-|-5-------4-------|
|-3-------3------3S5-|-5-------5-------|-3-------3-------|-----------------|
|--------------------|-----------------|-----------------|-----------------|
  H       Q.     S S   H       H         H       H         H       H


                    Verse
  Dm7     D7         G       Am7       Gmaj7/B C         G       Am7
  E E E E E E E E    E E E E E E E E   E E E E E E E E   E E E E E E E E
|-----------------||-0-----0-------0-|-------0-------0-|-------0-------0-|
|-----3-------3---||-0-------1-------|-3-------5-------|-0-------1-----0-|
|---5---5---5---5-||-----0-------0---|-----0-------0---|-----0-------0---|
|-3-------4-----4-||---0-------2-----|---4-------5-----|---0-------2-----|
|-----------------||-0-------2-------|-4-------5-------|-0-------2-------|
|-----------------||-----------------|-----------------|-----------------|
  H       H          H       H         H       H         H       H


  Gmaj7/B C         G       Am7       Gmaj7/B C         Bb      Am7
  E E E E E E E E   E E E E E E E E   E E E E E E E E   E E E E E E a E E
|-------0-------0-|-------0-------0-|-------0-------0-|-------------------|
|-3-------5-------|-0-------1-------|-3-------5-------|-3-1---1-----------|
|-----0-------0---|-----0-------0---|-----0-------0---|-----3-------0h2-0-|
|---4-------5-----|---0-------2-----|---4-------5-----|-----------0-------|
|-4-------5-------|-0-------2-------|-4-------5-------|-3-------2---------|
|-----------------|-----------------|-----------------|-------------------|
  H       H         H       H         H       H         H       H


  G                  Bb      Am7         G
  E  E E E E E E E   E E E E E E a E E   E E E E E E E E
|----------0-------|-------------------|---------5-------||
|--------0---------|-3-1---1-----------|-------0-----0---||
|------0-----0-----|-----3-------0h2-0-|-----0-----0---0-||
|----0-----------0-|-----------0-------|---0-------------||
|-0------------2---|-3-------2---------|-0---------------||
|------------------|-------------------|-----------------||
  H.           Q     H       H           W


 Trumpet Solo
  F/C       C         Eb/Bb     Bb
  Gtr I
  E E   E E E E E E   E E   E E E  E E E
|---------5---------|---------3------------|
|-6---------5-------|-4---------3----------|
|-------5-------5---|-------3------3-------|
|---7---------5---0-|---5------------3-----|
|-5---------5-------|-3---------3------3S5-|
|-------------------|----------------------|
| H         H         H         Q.     S S
|
| Gtr II
| E S S E E E E Q     E S S E E E  E Q
|-------------------|----------------------|
|-----5-6-8-5-------|-----3-4-6-3----------|
|---7---------5-----|---5----------3-------|
|---------------5---|----------------3-----|
|-------------------|----------------------|
|-------------------|----------------------|


  F/C       C         Eb/Bb   Bb
  E E   E E E E E E   E E   E E E  E E E
|---------5---------|---------3------------|
|-6---------5-------|-4---------3----------|
|-------5-------5---|-------3------3-------|
|---7---------5---0-|---5------------3-----|
|-5---------5-------|-3---------3------3S5-|
|-------------------|----------------------|
| H         H         H         Q.     S S
|
| E S S E E E E Q     E S S E E E  E Q
|-------------------|----------------------|
|-----5-6-8-5-------|-----3-4-6-3----------|
|---7---------5-----|---5----------3-------|
|---------------5---|----------------3-----|
|-------------------|----------------------|
|-------------------|----------------------|


  F/C       C         Eb/Bb       Bb
  E E   E E E E E E   E E   E E   E E E E
|---------5---------|---------3-----------|
|-6---------5-------|-4-----------3-------|
|-------5-------5---|-------3---------3---|
|---7---------5---0-|---5-----------3---0-|
|-5---------5-------|-3-----------3-------|
|-------------------|---------------------|
| H         H         H           H
|
| E S S E E E E Q     E S S E S S E E E E
|-------------------|---------------------|
|-----5-6-8-5-------|-----3-4-3---3-6-----|
|---7---------5-----|---5-------5-----3-5-|
|---------------5---|---------------------|
|-------------------|---------------------|
|-------------------|---------------------|


  D7sus4  D7        Dm7       D7
  E E E E E E E E    E  E E E E E   E   E
|-----------------|-------------------------||
|-----3-------3---|-------3---------3-------||
|---5---5---5---5-|-----5---5---5-------5---||
|-5-------4-------|--3--------4---------4---||
|-----------------|-------------------------||
|-----------------|-------------------------||
| H       H          H        H
|
| W                 +H        E S S S S S S
|-----------------|-------------------------||
|-3---------------|-(3)---------3S5-3-------||
|-----------------|-------------------5-4-2-||
|-----------------|-------------------------||
|-----------------|-------------------------||
|-----------------|-------------------------||


 Verse
  G       Am7       Gmaj7/B C         G       Am7       Gmaj7/B C
  E E E E E E E E   E E E E E E E E   E E E E E E E E   E E E E E E E E
|-0-----0-------0-|-------0-------0-|-------0-------0-|-------0-------0-|
|-0-------1-------|-3-------5-------|-0-------1-----0-|-3-------5-------|
|-----0-------0---|-----0-------0---|-----0-------0---|-----0-------0---|
|---0-------2-----|---4-------5-----|---0-------2-----|---4-------5-----|
|-0-------2-------|-4-------5-------|-0-------2-------|-4-------5-------|
|-----------------|-----------------|-----------------|-----------------|
| H       H         H       H         H       H         H       H
|
| H       H         W                 W                 W
|-----------------|-----------------|-----------------|-----------------|
|-----------------|-----------------|-----------------|-----------------|
|-----------------|-----------------|-----------------|-----------------|
|-5---------------|-----------------|-----------------|-----------------|
|-----------------|-----------------|-----------------|-----------------|
|-----------------|-----------------|-----------------|-----------------|


  G       Am7       Gmaj7/B C         Bb      Am7         G
  Gtr I
  E E E E E E E E   E E E E E E E E   E E E E E E a E E   E  E E E E E E E
|-------0-------0-|-------0-------0-|-------------------|----------0-------|
|-0-------1-------|-3-------5-------|-3-1---1-----------|--------0---------|
|-----0-------0---|-----0-------0---|-----3-------0h2-0-|------0-----0-----|
|---0-------2-----|---4-------5-----|-----------0-------|----0-----------0-|
|-0-------2-------|-4-------5-------|-3-------2---------|-0------------2---|
|-----------------|-----------------|-------------------|------------------|
  H       H         H       H         H       H           H.           Q


 Outro
  Bb      Am7         G                  Bb      Am7
  E E E E E E a E E   E  E E E E E E E   E E E E E E a E E   E E S S E +H
|-------------------|----------0-------|-------------------|---------5-(5)----*|
|-3-1---1-----------|--------0---------|-3-1---1-----------|------------------*|
|-----3-------0h2-0-|------0-----0-----|-----3-------0h2-0-|-----2S4----------*|
|-----------0-------|----0-----------0-|-----------0-------|---0--------------*|
|-3-------2---------|-0------------2---|-3-------2---------|-0----------------*|
|-------------------|------------------|-------------------|------------------*|
  H       H           H.           Q     H       H           W





Comments


Popular Dan Fogelberg tabs & chords
Believe In Me 1 Chords
Ghosts Chords
Heart Hotels Chords
Leader Of The Band 1 Chords
Longer 1 Chords
The Sand And The Foam Chords
Leader Of The Band Tabs
In The Passage Ukulele
Scarecrows Dream Ukulele
Sometimes A Song Ukulele


Song lyrics



↑ Back to top | Tablatures and chords are parodies/interpretations of the original songs. You may use it for private study, scholarship, research or language learning purposes only
© 2014 AZChords.com Contact us | Privacy policy | DMCA | Add/correct tabs | Request tabs | Top 50 tabs