» » »

Dan Fogelberg, Longer Tabs (ver.1)

Artists:  A B C D E F G H I J K L M N O P Q R S T U V W X Y Z # 

Longer Tabs (ver.1)

Dan Fogelberg Tabs
 Rating:
4.5/5 (8 votes)
Longer lessons Tabs too difficult? Try these video lessons and learn fast
1
                Longer in Standard Tuning by Irvin Wan and edited by Chen Yi
e:------------------------|--------------0---------|------------------------|
B:--3--------3--1--------3|--3--------3-----------3|--0--------3--1--------3|
G:--------0-----------0---|--------0--------0--0---|--------0-----------0---|
D:-----0-----------2------|-----4------------------|-----0-----------2------|
A:--------------0---------|--2-----------3---------|--------------0---------|
E:--3---------------------|------------------------|--3---------------------|

e:--------2--3--------3---|------------------------|-----0--------0---------|
B:--3--5--------------5---|--0--------3--1--------3|--3-----3-----------3---|
G:-----------------5-----5|--------0-----------0---|-----------0-----0-----0|
D:--------------5---------|-----0-----------2------|------------------------|
A:--2--------3------------|--------------0---------|--2-----------3---------|
E:------------------------|--3---------------------|------------------------|
    C1
e:--------------------------|------------------------|
B:--3--1-----1--------------|-----------0--1-----3---|
G:--------3-----------0H2--0|--------0--------0-----0|
D:-----------------0--------|-----0--------2-----4---|
A:--1-----------0-----------|------------------------|
E:--------------------------|--3---------------------|
    Verse X3
e:------------------------|--------------0---------|
B:--3--------3--1--------3|--3--------3-----------3|
G:--------0-----------0---|--------0--------0--0---|
D:-----0-----------2------|-----4------------------|
A:--------------0---------|--2-----------3---------|
E:--3---------------------|------------------------|
          Longer than...
e:--------------------------|------------------------|
B:--3--1-----1--------------|-----------0--1-----3---|
G:--------3-----------0H2--0|--------0--------0-----0|
D:-----------------0--------|-----0--------2-----4---|
A:--1-----------0-----------|------------------------|
E:--------------------------|--3---------------------|
    I've been...
    2nd time
e:--------------------------|--------------3-----3---|
B:--3--1-----1--------------|-----------0------------|
G:--------3-----------0H2--0|--------0--------0-----0|
D:-----------------0--------|-----0------------------|
A:--1-----------0-----------|------------------------|
E:--------------------------|--3---------------------|
    I've been...
    Chorus x3
e:------------------------|-----------1------------|--------------------------|
B:--------1--3-----------3|------------------------|--------3-----------3-----|
G:-----2--------------5---|-----0--3--------3------|-----5-----5-----5-----5--|
D:-----------------5------|--------------------3---|--5-----------4-----------|
A:--3-----------3---------|--1-----------1--------1|--------------------------|
E:------------------------|------------------------|--------------------------|
    I'll        bring        fire in the winters      With lo---------------ve on our          x3
e:-----------------------|------------------------|--------------0---------|
B:--------3-----------3--|--0--------3--1--------3|--3--------3-----------3|
G:-----5-----5-----5----5|--------0-----------0---|--------0--------0--0---|
D:--3-----------4--------|-----0-----------2------|-----4------------------|
A:-----------------------|--------------0---------|--2-----------3---------|
E:-----------------------|--3---------------------|------------------------|
    wings                      Through the years...
e:--------------------------|------------------------|
B:--3--1-----1--------------|-----------0--3---------|
G:--------3-----------0H2--0|--------0--------0------|
D:-----------------0--------|-----0-----------------0|
A:--1-----------0-----------|--------------------0---|
E:--------------------------|--3---------------------|
    I'll be...
e:------------------------|--------------3-----3---| d:--------------------------|-------------3|
B:3--1-----1--------------|-----------0------------| B:--3--1-----1--------------|--------------|
G:------3-----------0H2--0|--------0--------0-----0| G:--------3-----------0H2--0|--------2/4---|
D:---------------0--------|-----0------------------| D:-----------------0--------|-----0--------|
A:1-----------0-----------|------------------------| G:--1-----------0-----------|--------------|
E:------------------------|--3---------------------| D:--------------------------|--3-----------|
    I am...
 
            
Submit corrections

comments powered by Disqus
↑ Back to top | Dan Fogelberg Tabs for Longer. Lyrics for acoustic guitar and electric guitar. 1 Tablatures and chords are parodies/interpretations of the original songs. You may use it for private study, scholarship, research or language learning purposes only