>
 >
Leader Of The Band 2

Leader Of The Band 2 Guitar Tabs

Dan Fogelberg - Leader Of The Band 2 chords, tabs, tablatures, lyrics

Guitar lessons | Add/correct | Request | Top 50 tabs Artists:  A B C D E F G H I J K L M N O P Q R S T U V W X Y Z 0-9

Leader Of The Band 2 Guitar Tabs – Dan Fogelberg

CD, Sheet music, Poster

Do you like Leader Of The Band 2? Share with your friends now
ChordsChords v2TabsTabs v2Tabs v3Tabs v4Ukulele
#------------------------------------------------------------------------------##

LEADER OF THE BAND


 Intro

|-------------0-|-----------------|---------------|---0--------------|
|-3-------3-----|---3---1---0-----|-1-------1-----|-3---3-1---0------|
|-----0---------|---------------0-|-----0-------0-|---------------0--|
|---3-------3---|-----3-------0---|---2-------2---|-------------2----|
|-2-------------|-2-------0-------|-3-------------|-3----------------|
|-------3-------|-----------------|-------3-------|---------3--------|


|-------0-(0)-------|-----------------|
|-0h1---------1-----|-0-1-0-----0-----|
|-----------------0-|-------0-------0-|
|-----2---------2---|-------------2---|
|-0-----------------|-----------------|
|-------------------|-0-------0-------|


|-2---------------||---------3-----|---------3-------|
|-3---3-----------||---0h1---------|---0h1-----------|
|---2---0h2p0---0-||-------------0-|-------------0---|
|-0-----------4---||---0h2-----2---|---0h2-----2-----|
|-----------------||---------------|-----------------|
|-----------------||-3-----3-------|-3-----3---------|


                                 Verse
|---------3---|---------------||--3-------------|---------------|
|---0h1-----1-|-0-------0-----||o---0h1---0-----|---------0-----|
|-------------|-0---0-------0-||--------------0-|-----0-------0-|
|---0h2-------|---0-------0---||----0h2-----2---|---0-------0---|
|-------------|---------------||o---------------|---------------|
|-3-----3-----|-3-----3-------||--3-----3-------|-3-----3-------|


|---------------|---------------|-0-------------|-------0----------|
|---------3-----|---------1-----|---------1-----|---3-------3------|
|-----4-------4-|-----0-------0-|-----2-------2-|-----0---------0--|
|---4-------4---|---2-------2---|---2-------2---|-------------2----|
|-2-------------|-3-------------|-0-----0-------|------------------|
|-------2-------|-------3-------|---------------|-0-------0--------|


|-----------------|-----------2-----|---------------|---------------|
|-------1-------1-|-----------------|---0h1---0-----|---------0-----|
|---2-------2-----|---0---0-----2-0-|-------------0-|-----0-------0-|
|-----2-------2---|-----2---0-------|---0h2-----2---|---0-------0---|
|-0---------------|-3---------------|---------------|---------------|
|---------0-------|-----------------|-3-----3-------|-3-----3-------|


|---------------|---------------|-0-------------|-------0----------|
|---------3-----|---------1-----|---------1-----|---3-------3------|
|-----4-------4-|-----0-------0-|-----2-------2-|-----0---------0--|
|---4-------4---|---2-------2---|---2-------2---|-------------2----|
|-2-------------|-3-------------|-0-------------|------------------|
|-------2-------|-------3-------|-------0-------|-0-------0--------|


                    Interlude
                 
|-----------2-----||---------3-----|
|---1-------------||---0h1---------|
|-------2-----2-0-||-------------0-|
|-----2---0-------||---0h2-----2---|
|-0---------------||---------------|
|-----------------||-3-----3-------|


|---------3-----|---------3---|----------------||
|---0h1---------|---0h1-----1-|-0-------0-----o||
|-------------0-|-------------|-0---0-------0--||
|---0h2-----2---|---0h2-------|---0-------0----||
|---------------|-------------|---------------o||
|-3-----3-------|-3-----3-----|-3-----3--------||

Verse 2

||--3-------------|---------------|
||o---0h1---0-----|---------0-----|
||--------------0-|-----0-------0-|
||----0h2-----2---|---0-------0---|
||o---------------|---------------|
||--3-----3-------|-3-----3-------|


|---------------|---------------|-0-------------|-------0----------|
|---------3-----|---------1-----|---------1-----|---3-------3------|
|-----4-------4-|-----0-------0-|-----2-------2-|-----0---------0--|
|---4-------4---|---2-------2---|---2-------2---|-------------2----|
|-2-------------|-3-------------|-0-----0-------|------------------|
|-------2-------|-------3-------|---------------|-0-------0--------|


|-----------------|-----------2-----|---------------|---------------|
|-------1-------1-|-----------------|---0h1---0-----|---------0-----|
|---2-------2-----|---0---0-----2-0-|-------------0-|-----0-------0-|
|-----2-------2---|-----2---0-------|---0h2-----2---|---0-------0---|
|-0---------------|-3---------------|---------------|---------------|
|---------0-------|-----------------|-3-----3-------|-3-----3-------|


|---------------|---------------|-0-------------|-------0----------|
|---------3-----|---------1-----|---------1-----|---3-------3------|
|-----4-------4-|-----0-------0-|-----2-------2-|-----0---------0--|
|---4-------4---|---2-------2---|---2-------2---|-------------2----|
|-2-------------|-3-------------|-0-------------|------------------|
|-------2-------|-------3-------|-------0-------|-0-------0--------|


                 Chorus
|-------------||--0-------------|---------------|---------------|
|---0-----1-3-||o---------1-----|---------3-----|---------1-----|
|-------0-----||------0-------0-|-----4-------4-|-----0-------0-|
|-----0-------||----2-------2---|---4-------4---|---2-------2---|
|---------0-2-||o-3-------------|-2-------------|-3-------------|
|-3-----------||--------3-------|-------2-------|-------3-------|


|-------------|---------------|-------0---------||------------------|
|---0-----1-3-|-1-------1-----|---3-------3-----||---1-------1------|
|-------0-----|-----2-------2-|-----0---------0-||-------2-------2--|
|-----0-------|---2-------2---|-------------2---||-----2-------2----|
|---------0-2-|-0-------------|-----------------||-0----------------|
|-3-----------|-------0-------|-0-------0-------||---------0--------|


|-----------2------|
|-------1---------o|
|---2---------2-0--|
|-----3---0--------|
|-----------------o|
|-1----------------|

             
||--0-------------|---------------|---------------|
||o---------1-----|---------3-----|---------1-----|
||------0-------0-|-----4-------4-|-----0-------0-|
||----2-------2---|---4-------4---|---2-------2---|
||o-3-------------|-2-------------|-3-------------|
||--------3-------|-------2-------|-------3-------|

|-------------|---------------|-------0---------||------------------|
|---0-----1-3-|-1-------1-----|---3-------3-----||---1-------1------|
|-------0-----|-----2-------2-|-----0---------0-||-------2-------2--|
|-----0-------|---2-------2---|-------------2---||-----2-------2----|
|---------0-2-|-0-------------|-----------------||-0----------------|
|-3-----------|-------0-------|-0-------0-------||---------0--------|


|-----------2------|
|-------1---------o|
|---2---------2-0--|
|-----3---0--------|
|-----------------o|
|-1----------------|


||---------3-----|---------3-------|
||---0h1---------|---0h1-----------|
||-------------0-|-------------0---|
||---0h2-----2---|---0h2-----2-----|
||---------------|-----------------|
||-3-----3-------|-3-----3---------|


                                
|---------3---|----------------|
|---0h1-----1-|-0--------0-----|
|-------------|-0----0-------0-|
|---0h2-------|----0-------0---|
|-------------|----------------|
|-3-----3-----|-3------3-------|



Verse 3

|--3-------------|---------------|
|o---0h1---0-----|---------0-----|
|--------------0-|-----0-------0-|
|----0h2-----2---|---0-------0---|
|o---------------|---------------|
|--3-----3-------|-3-----3-------|


|---------------|---------------|-0-------------|-------0----------|
|---------3-----|---------1-----|---------1-----|---3-------3------|
|-----4-------4-|-----0-------0-|-----2-------2-|-----0---------0--|
|---4-------4---|---2-------2---|---2-------2---|-------------2----|
|-2-------------|-3-------------|-0-----0-------|------------------|
|-------2-------|-------3-------|---------------|-0-------0--------|


|-----------------|-----------2-----|---------------|---------------|
|-------1-------1-|-----------------|---0h1---0-----|---------0-----|
|---2-------2-----|---0---0-----2-0-|-------------0-|-----0-------0-|
|-----2-------2---|-----2---0-------|---0h2-----2---|---0-------0---|
|-0---------------|-3---------------|---------------|---------------|
|---------0-------|-----------------|-3-----3-------|-3-----3-------|


|---------------|---------------|-0-------------|-------0----------|
|---------3-----|---------1-----|---------1-----|---3-------3------|
|-----4-------4-|-----0-------0-|-----2-------2-|-----0---------0--|
|---4-------4---|---2-------2---|---2-------2---|-------------2----|
|-2-------------|-3-------------|-0-------------|------------------|
|-------2-------|-------3-------|-------0-------|-0-------0--------|



||---------3-----|---------3-------|
||---0h1---------|---0h1-----------|
||-------------0-|-------------0---|
||---0h2-----2---|---0h2-----2-----|
||---------------|-----------------|
||-3-----3-------|-3-----3---------|


                                
|---------3---|----------------|
|---0h1-----1-|-0--------------|
|-------------|-0--------------|
|---0h2-------|----------------|
|-------------|----------------|
|-3-----3-----|-3--------------|


interlude


|-------------0-|-----------------|---------------|---0--------------|
|-3-------3-----|---3---1---0-----|-1-------1-----|-3---3-1---0------|
|-----0---------|---------------0-|-----0-------0-|---------------0--|
|---3-------3---|-----3-------0---|---2-------2---|-------------2----|
|-2-------------|-2-------0-------|-3-------------|-3----------------|
|-------3-------|-----------------|-------3-------|---------3--------|


|-------0-(0)-------|-----------------|
|-0h1---------1-----|-0-1-0-----0-----|
|-----------------0-|-------0-------0-|
|-----2---------2---|-------------2---|
|-0-----------------|-----------------|
|-------------------|-0-------0-------|


|-2---------------||---------3-----|---------3-------|
|-3---3-----------||---0h1---------|---0h1-----------|
|---2---0h2p0---0-||-------------0-|-------------0---|
|-0-----------4---||---0h2-----2---|---0h2-----2-----|
|-----------------||---------------|-----------------|
|-----------------||-3-----3-------|-3-----3---------|


                                
|---------3---|---------------|
|---0h1-----1-|-0-----0-------|
|-------------|-0---0---------|
|---0h2-------|---0-----------|
|-------------|---------------|
|-3-----3-----|-3-------------|

verse 4:

||--3-------------|---------------|
||o---0h1---0-----|---------0-----|
||--------------0-|-----0-------0-|
||----0h2-----2---|---0-------0---|
||o---------------|---------------|
||--3-----3-------|-3-----3-------|


|---------------|---------------|-0-------------|-------0----------|
|---------3-----|---------1-----|---------1-----|---3-------3------|
|-----4-------4-|-----0-------0-|-----2-------2-|-----0---------0--|
|---4-------4---|---2-------2---|---2-------2---|-------------2----|
|-2-------------|-3-------------|-0-----0-------|------------------|
|-------2-------|-------3-------|---------------|-0-------0--------|


|-----------------|-----------2-----|---------------|---------------|
|-------1-------1-|-----------------|---0h1---0-----|---------0-----|
|---2-------2-----|---0---0-----2-0-|-------------0-|-----0-------0-|
|-----2-------2---|-----2---0-------|---0h2-----2---|---0-------0---|
|-0---------------|-3---------------|---------------|---------------|
|---------0-------|-----------------|-3-----3-------|-3-----3-------|


|---------------|---------------|-0-------------|-------0----------|
|---------3-----|---------1-----|---------1-----|---3-------3------|
|-----4-------4-|-----0-------0-|-----2-------2-|-----0---------0--|
|---4-------4---|---2-------2---|---2-------2---|-------------2----|
|-2-------------|-3-------------|-0-------------|------------------|
|-------2-------|-------3-------|-------0-------|-0-------0--------|


                 
|-----------2-----||---------3-----|
|---1-------------||---0h1---------|
|-------2-----2-0-||-------------0-|
|-----2---0-------||---0h2-----2---|
|-0---------------||---------------|
|-----------------||-3-----3-------|



|-0-------------|-------0----------|
|---------1-----|---3-------3------|
|-----2-------2-|-----0---------0--|
|---2-------2---|-------------2----|
|-0-------------|------------------|
|-------0-------|-0-------0--------|


                    repeat 3x
|-----------2-----||---------3-----|------------|
|---1-------------||---0h1---------|--0---------|
|-------2-----2-0-||-------------0-|--0---------|
|-----2---0-------||---0h2-----2---|------------|
|-0---------------||---------------|------------|
|-----------------||-3-----3-------|--3---------|



outro:

|-------------0-|-----------------|---------------|---0-------------|
|-3-------3-----|---3---1---0-----|-1-------1-----|-3---3-1---0-----|
|-----0---------|---------------0-|-----0-------0-|---------------0-|
|---3-------3---|-----3-------0---|---2-------2---|-------------2---|
|-2-------------|-2---------------|-3-------------|-3---------------|
|-------3-------|---------3-------|-------3-------|---------3-------|


|-------0-(0)-------|-----------------|-2---------------|-------3----*|
|-0-1---------1-----|-0-1-0-----0-----|-3---3-----------|---0---0----*|
|-----------------0-|-------0-------0-|---2---0h2p0---0-|-------0----*|
|-----2---------2---|-------------2---|-0-----------4---|-----0------*|
|-0-----------------|-----------------|-----------------|------------*|
|-------------------|-0-------0-------|-----------------|-3-----3----*|





Comments


Popular Dan Fogelberg tabs & chords
Dancing Shoes Chords
Icarus Ascending Chords
Morning Sky Chords
These Days Chords
Believe In Me Ukulele
Heart Hotels Ukulele
Run For The Roses Ukulele
Sometimes A Song Ukulele
The Reach Ukulele
The Sand And The Foam Ukulele


Song lyrics



↑ Back to top | Tablatures and chords are parodies/interpretations of the original songs. You may use it for private study, scholarship, research or language learning purposes only
© 2014 AZChords.com Contact us | Privacy policy | DMCA | Add/correct tabs | Request tabs | Top 50 tabs