» » »

Always Be There Tabs (ver.2)

Artists:  A B C D E F G H I J K L M N O P Q R S T U V W X Y Z # 

Always Be There Tabs (ver.2)

Dane Rumble
Rating:
0/5 (0 votes)

Hard to play? Try these video lessons and learn fast.
                -----------------------------------------------------------------------------
                             ALWAYS BE THERE - Dane Rumble
-----------------------------------------------------------------------------
This version is more righter than the other.

Intro/Verse

(Palm mute a bit)
e|------------------------------------------------------------------|
B|--1-1--0-0--1-----1-1-0-0-1-1-0-0-0-0-0-0-0-----0-0-0-0-0-0-0-0---|
G|--2-2--0-0--2-----2-2-0-0-2-2-0-0-2-2-0-0-2-----2-2-0-0-2-2-0-0---|
D|--2-2--0-0--2-----2-2-0-0-2-2-0-0-3-3-0-0-3-----3-3-0-0-3-3-0-0---|
A|--0-0--0-0--0-----0-0-0-0-0-0-0-0-3-3-0-0-3-----3-3-0-0-3-3-0-0---|
E|------------------------------------------------------------------|

Pre Chorus

   C           Dm         Am
e|----------------------------------|
B|-5-55--5-55--6-66--66--5-55-5-55--|
G|-5-55--5-55--7-77--77--5-55-5-55--|  x2
D|-5-55--5-55--7-77--77--7-77-7-77--|
A|-3-33--3-33--5-55--55--7-77-7-77--|
E|----------------------------------|

Chorus
e|-------------------------------------------------------------|
B|-------------------------------------------------------------|
G|-------------------------------------------------------------|
D|-3-3-3-3-3-3-3-3--5--77777777-55555555-333333333333----------|
A|-3-3-3-3-3-3-3-3--5--77777777-55555555-333333333333----------|
E|-1-1-1-1-1-1-1-1--3--55555555-33333333-111111111111----------|


Bridge (rap)

e|-----------------------------8----8--8--8---8--8--8---12-12------|
B|--10-10-10---10-10-10--12-12-10---10-10-10--10-10-10--10-10--10--|
G|--10-10-10---10-10-10--12-12---------------------------------10--|
D|-----------------------------------------------------------------|
A|-----------------------------------------------------------------|
E|-----------------------------------------------------------------|
            
Hard to play? Try these video lessons and learn fast. | Correct




comments powered by Disqus
↑ Back to top | Tablatures and chords are parodies/interpretations of the original songs. You may use it for private study, scholarship, research or language learning purposes only