>
 >
Always Be There

Always Be There Guitar Tabs

Dane Rumble - Always Be There chords, tabs, tablatures, lyrics

Guitar lessons | Add/correct | Request | Top 50 tabs Artists:  A B C D E F G H I J K L M N O P Q R S T U V W X Y Z 0-9

Always Be There Guitar Tabs – Dane Rumble

CD, Sheet music, Poster

Do you like Always Be There? Share with your friends now
TabsTabs v2
-------------------------------------------------------------------------------
-------------------------------------------------------------------------------

This tab seems to be very sought after, so here you go! 


Tuning: Standard EADGBe

Intro/Verse
   A  G  A   A  G  A   A G  F G  F   F  G  F  B Bb A

e|---------------------------------------------------------------------------|
B|---------------------------------------------------------------------------|
G|---------------------------------------------------------------------------|
D|-77-55-7---77-55-7---7-5-33-55-3---33-55-3--10-9-7-------------------------|
A|-77-55-7---77-55-7---7-5-33-55-3---33-55-3--10-9-7-------------------------|
E|-55-33-5---55-33-5---5-3-11-33-1---11-33-1--8--7-5-------------------------|

Pre Chorus
    G

e|--------------|
B|--------------|
G|--55555555----|
D|--55555555----|
A|--33333333----|
E|--------------|

Chorus

   C                   D         A         
e|-----------------------------------------|
B|-----------------------------------------|
G|-5-55--55--5-55--55--7-77--77------------|  x2
D|-5-55--55--5-55--55--7-77--77--5-55--55--|
A|-3-33--33--3-33--33--5-55--55--5-55--55--|
E|-------------------------------3-33--33--|

   F                A        G

e|---------------------------------------------------------------------------|
B|---------------------------------------------------------------------------|
G|---------------------------------------------------------------------------|
D|-3-3-3-3-3-3-3-3--7-77-77--5-55-55-----------------------------------------|
A|-3-3-3-3-3-3-3-3--7-77-77--5-55-55-----------------------------------------|
E|-1-1-1-1-1-1-1-1--5-55-55--3-33-33-----------------------------------------|

   F                A        G      G# A

e|---------------------------------------------------------------------------|
B|---------------------------------------------------------------------------|
G|---------------------------------------------------------------------------|
D|-3-3-3-3-3-3-3-3--7-77-77--5-55-5-66-7-------------------------------------|
A|-3-3-3-3-3-3-3-3--7-77-77--5-55-5-66-7-------------------------------------|
E|-1-1-1-1-1-1-1-1--5-55-55--3-33-3-44-5-------------------------------------|


Solo (very rough, not too hard to figure out yourself)

e|---------------------------------------------------------------------------|
B|----------------------------------------------------------------17-17------|
G|-14--14-14--14-14--14--14-14-16-16--17-17--17--17-17--17--17-17------------| x3(?)
D|---------------------------------------------------------------------------|
A|---------------------------------------------------------------------------|
E|---------------------------------------------------------------------------|

Final repeat of solo ends differently


************************************

| /   slide up
| \   slide down
| h   hammer-on
| p   pull-off
| ~   vibrato
| +   harmonic
| x   Mute note
| b   Bend
| pb  Pre-bend
| br  Bend release
| pbr Pre-bend release
| brb Bend release bend

************************************





Comments


Popular Dane Rumble tabs & chords
Cruel Chords
Dont Know What To Do Chords
Always Be Here Intro Tabs
Always Be There 1 Tabs
Cruel Tabs
Cruel Ukulele
Dont Know What To Do Ukulele


Song lyrics



↑ Back to top | Tablatures and chords are parodies/interpretations of the original songs. You may use it for private study, scholarship, research or language learning purposes only
© 2014 AZChords.com Contact us | Privacy policy | DMCA | Add/correct tabs | Request tabs | Top 50 tabs