» » »

Dandy Warhols, Welcome To The Third World Tabs (ver.1)

Artists:  A B C D E F G H I J K L M N O P Q R S T U V W X Y Z # 

Welcome To The Third World Tabs (ver.1)

Dandy Warhols Tabs
Rating:
0/5 (0 votes)
Welcome To The Third World lessons Tabs too difficult? Try these video lessons and learn fast
                -----------------------------------------------------------------------------
                WELCOME TO THE THIRD WORLD - The Dandy Warhols
-----------------------------------------------------------------------------

Hi everyone, here's a cool song from 'Earth to the Dandy Warhols'.
Sounds like that :

Tuning: EADGBE (standard)

Intro :

e|------7---9-------7---9--7-7-7-7-7-7-7-7-7-7-7-7-7-7-7-7-7-7-7-7-7-7-7-7-7|
B|----8-----------8--------7-7-7-7-7-7-7-7-7-7-7-7-7-7-7-7-7-7-7-7-7-7-7-7-7|
G|--9-----------9----------7-7-7-7-7-7-7-7-7-7-7-7-7-7-7-7-7-7-7-7-7-7-7-7-7|
D|--------------------------------------------------------------------------|
A|--------------------------------------------------------------------------|
E|--------------------------------------------------------------------------|

Main riff, played throughout the song :


e|--7-x-7-x-7-9-x-9-x-x-7-x-7-x-7-10-9-7-x-7-x-7-x-9-7-x-7-x-x-7-x-7-x-7-7-7|
B|--8-x-8-x-8-8-x-8-x-x-8-x-8-x-8--8-8-8-x-7-x-7-x-7-7-x-7-x-x-7-x-7-x-7-7-7|
G|--9-x-9-x-9-9-x-9-x-x-9-x-9-x-9--9-9-9-x-7-x-7-x-7-7-x-7-x-x-7-x-7-x-7-7-7|
D|--------------------------------------------------------------------------|
A|--------------------------------------------------------------------------|
E|--------------------------------------------------------------------------|


At 2:15 approximatively, the intro riff is played a bit longer :

e|--------7---9--------7---9-7-----7---9------7---9-7-------|
B|------8------------8-----------8----------8---------------|
G|----9------------9-----------9----------9-----------------|
D|----------------------------------------------------------|
A|----------------------------------------------------------|
E|----------------------------------------------------------| as much as necessary, just 
to the song to get it.
Finish this part with :


e|--7-7-7-7-7-7-7-7-7-7-7-7-7-7-7-7-7-7-7-7-7-7-7-7-7---|
B|--7-7-7-7-7-7-7-7-7-7-7-7-7-7-7-7-7-7-7-7-7-7-7-7-7---|
G|--7-7-7-7-7-7-7-7-7-7-7-7-7-7-7-7-7-7-7-7-7-7-7-7-7---|
D|------------------------------------------------------|
A|------------------------------------------------------|
E|------------------------------------------------------|

That's basically the whole song. There is a kind of solo at 4:00 or something, but I 
find it out by ear at the moment (yeah, lazy).

Have fun!


************************************

| /   slide up
| \   slide down
| h   hammer-on
| p   pull-off
| ~   vibrato
| +   harmonic
| x   Mute note
| b   Bend
| pb  Pre-bend
| br  Bend release
| pbr Pre-bend release
| brb Bend release bend

************************************
            

comments powered by Disqus
↑ Back to top | Dandy Warhols Tabs for Welcome To The Third World. Lyrics for acoustic guitar and electric guitar. Tablatures and chords are parodies/interpretations of the original songs. You may use it for private study, scholarship, research or language learning purposes only